Song name
# A B C D E F G H I J K L M N O P Q R S T U V W X Y Z

Halos - My Favorite Things tab

http://www.myspace.com/halosband

so i found certain parts of the song, just the major parts
theres like 3 guitars in this song

guitar 1 basically plays this the whole time, it switches up a bit though

e|----0-----------0-----0-|
B|------------------------|
G|---0--0-0-0---------0---|
D|-2-----2-2---2/5--------|
A|-----------0------3-----|
E|------------------------|

guitar 2 comes in with the keyboard i think
                      cant really figure this part out
e|-3~3/5~5/7~5-3~3/5-(3-1-0-1---------------| or 1h3p1p0h1 or something like that)
B|-0~----------0~---------------------------|
G|-0~----------0~---------------------------|
D|-2~----------2~---------------------------|
A|-3~----------3~---------------------------|
E|------------------------------------------|

the riff above is played a few times and comes in every now and then
i cant figure out the other random stuff this guitar plays either

and theres another part in between the parts where the
verse above is played

e|-0~-3~-0~-|
B|-0~-0~-0~-|
G|-0~-0~-0~-|
D|-2~-2~-2~-|
A|-3~-3~-3~-|
E|----------|

and one more verse
strumming (listen to song for pattern)

e|-0--0--0--0--|
B|-0--0--0--0--|
G|-0--0--0--0--|
D|-5--7--9--9--|
A|-3--5--7--7--|
E|-------------|

i dont even know the order of these verses
i just figured them out and tabbed them

so you guys help me figure out the rest :D
Tap to rate this tab
 
# A B C D E F G H I J K L M N O P Q R S T U V W X Y Z