Halos - Landmine tab

hey guys
tabbed out another halos song :D
comment and rate please

capo on the 6th fret
x2
E|------------------------|
B|------------------------|
G|------------------------|
D|------------------------|
A|22-2222-22-2222-00-202~-|
E|00-3030-00-3030-33-333~-|

listen to the song to figure out the strumming

E|--0-|-2-2-22-2-3-332-22-|
B|--0-|-0-0-00-0-0-000-00-|
G|--0-|-------------------|
D|--0-|-------------------|
A|--2-|-------------------|
E|3-3-|-------------------|

E|--0-|-2-2-22-2-3-332-22-|
B|--0-|-0-0-00-0-0-000-00-|
G|--0-|-------------------|
D|--2-|-------------------|
A|3-3-|-------------------|
E|----|-------------------|

then just play those two chords back to back basically without
the riff in between

eventually you his a bride

E|13-13-13-131311-1111-11-1111-9-9-9-99-98-8-88-88-|
B|0--0--0--0-0-0--0-0--0--0-0--0-0-0-00-00-0-00-00-|
G|-------------------------------------------------|
D|-------------------------------------------------|
A|-------------------------------------------------|
E|-------------------------------------------------|

then you go back to playing those chords again
Tap to rate this tab
 
# A B C D E F G H I J K L M N O P Q R S T U V W X Y Z