Halos - Amalgam tab

so i listened to the song and this is what i came up with
http://www.youtube.com/watch?v=2BqXO7U3OC0&feature=related
thats the music video
comment and rate please :D

X8
E|-----------------------------------------------------------------|
B|-----------------------------------------------------------------|
G|-----------------------------------------------------------------|
D|4-444-444-444-444-444-444-444-44---------------------------------|
A|2-222-222-222-222-222-222-000-005-555-555-555-555-555-555-555-55-|
E|--------------------------------3-333-333-333-333-333-333-555-55-|
  * *** *** *** *** *** *** *** *** *** *** *** *** *** *** *** **
the hardest part of the song is just transitioning to the verse played
above and jump right into this part coming up

x3
E|---------|--------------|
B|--710--7-|--71010101010-|
G|-7----7--|-7------------|
D|9--------|9-------------|
A|---------|--------------|
E|---------|--------------|

this part might seem confusing with the way i tabbed this
but just listen to the song, he's strumming and bending at
the same time. he bends like 1/4 the way a few strums then up
1/2 way, and then 3/4 and then all the way, while strumming
both the 5th and 3rd string at the same time.
x4
E|-----------------------------------------|
B|-----------------------------------------|
G|---------7-777-xx-9-999-99b(1/2)10-------|
D|9-999-xx-x-xxx-xx-x-xxx-xx---------------|
A|x-xxx-xx-5-555-xx-7-777-7777777777777777-|
E|7-777-xx---------------------------------|

x8
E|-----------------------------------------------------------------|
B|-----------------------------------------------------------------|
G|-----------------------------------------------------------------|
D|4-444-444-444-444-444-444-444-44---------------------------------|
A|2-222-222-222-222-222-222-000-005-555-555-555-555-555-555-555-55-|
E|--------------------------------3-333-333-333-333-333-333-555-55-|
  * *** *** *** *** *** *** *** *** *** *** *** *** *** *** *** **

x3
E|---------|--------------|
B|--710--7-|--71010101010-|
G|-7----7--|-7------------|
D|9--------|9-------------|
A|---------|--------------|
E|---------|--------------|

x4
E|-----------------------------------|
B|-----------------------------------|
G|---------7-777-xx-9-999-99b(1/2)10-|
D|9-999-xx-x-xxx-xx-x-xxx-xx---------|
A|x-xxx-xx-5-555-xx-7-777-77---------|
E|7-777-xx---------------------------|

then there is a bridge for the piano and it goes back into this

x3
E|---------|--------------|
B|--710--7-|--71010101010-|
G|-7----7--|-7------------|
D|9--------|9-------------|
A|---------|--------------|
E|---------|--------------|

x4
E|-----------------------------------|
B|-----------------------------------|
G|---------7-777-xx-9-999-99b(1/2)10-|
D|9-999-xx-x-xxx-xx-x-xxx-xx---------|
A|x-xxx-xx-5-555-xx-7-777-77---------|
E|7-777-xx---------------------------|
Tap to rate this tab
 
# A B C D E F G H I J K L M N O P Q R S T U V W X Y Z