Song name
# A B C D E F G H I J K L M N O P Q R S T U V W X Y Z

Halou - Wholeness tab

Artist: Halou
Album: Wholeness & Separation
Song: Wholeness
Tabbed By A Dead Fly

Artist's Official Website: http://halou.bandcamp.com/

Artist's Myspace: http://www.myspace.com/halou

Guitars both have standard tuning

Intro:

e|----------------|
B|----------------|
G|--7-------------| Either constantly strum this or play it with lots
D|--x-------------| of tremolo, echo, and overdrive effects
A|--5-------------|
E|----------------|

e|--10------------|
B|--x-------------|
G|--7-------------| then switch to the higher octave a few seconds later
D|----------------|
A|----------------|
E|----------------|

Verses and Choruses:

Rhythm Guitar always plays these chords, but pauses during
some of the verses -

   Asus4	 Am	       Em
e|-0-0-0-0-0-0-|-0-0-0-0-0-0-|-0-0-0-0-0-0-|-0-0-0-0-0-0-|
B|-3-3-3-3-3-3-|-1-1-1-1-1-1-|-0-0-0-0-0-0-|-0-0-0-0-0-0-|
G|-2-2-2-2-2-2-|-2-2-2-2-2-2-|-0-0-0-0-0-0-|-0-0-0-0-0-0-|
D|-0-0-0-0-0-0-|-2-2-2-2-2-2-|-2-2-2-2-2-2-|-2-2-2-2-2-2-|
A|-0-0-0-0-0-0-|-0-0-0-0-0-0-|-2-2-2-2-2-2-|-2-2-2-2-2-2-|
E|-------------|-------------|-0-0-0-0-0-0-|-0-0-0-0-0-0-|


Lead Guitar plays this in the choruses -

e|----5--------|-----7-------|-8-----------|-3-----------|
B|-5-----------|-10----------|----12-------|----5--------|
G|-------------|-------------|-------------|-------------|
D|-------------|-------------|-------------|-------------|
A|-------------|-------------|-------------|-------------|
E|-------------|-------------|-------------|-------------|

and this in the verses -

e|-5~----------|-------------|-7~----------|-------------|
B|-5~----------|-------------|-8~----------|-------------|
G|-7~----------|-------------|-9~----------|-------------|
D|-------------|-------------|-------------|-------------|
A|-------------|-------------|-------------|-------------|
E|-------------|-------------|-------------|-------------|

Outro:

Rhythm Guitar plays same chords

Another rhythm guitar plays same chords but with distortion
and just powerchords -

e|-------------|-------------|-------------|-------------|
B|-------------|-------------|-------------|-------------|
G|-7-----------|-------------|-------------|-------------|
D|-7-----------|-7-----------|-2-----------|-2-----------|
A|-5-----------|-7-----------|-2-----------|-2-----------|
E|-------------|-5-----------|-0-----------|-0-----------|

Lead Guitar -


e|----10--8--7-|----8--7--5--|----7--5--3--|---5--3--1-0-|
B|-------------|-------------|-------------|-------------|
G|-------------|-------------|-------------|-------------|
D|-------------|-------------|-------------|-------------|
A|-------------|-------------|-------------|-------------|
E|-10----------|-5-----------|-0-----------|-0-----------|

Email questions to azlizard13@yahoo.com

Please give me credit if you use this tab for a video
Tap to rate this tab
 
# A B C D E F G H I J K L M N O P Q R S T U V W X Y Z