Halves - May Your Enemies Never Find Happiness tab

Today I tried to find these tabs on the internet but I could not do it. This is not an 
ideal version, the full will be later, because this is the first song that I lay out 
here, and I have little experience in tabbing)
enjoy it!

i think it probably neck pickup

RIFF A
   Dm  B       C   Dm
Eb--5---------------------------|------------------------|v
Bb------3---1---5---5>6---------|------------------------|
Gb------------------------------|------------------------|
Db--0---------------------------|------------------------|
Ab------1-------3---5-----------|------------------------|
Eb------------------------------|------------------------|


RIFF B
   Dm          B                   C        Am
Eb------------------------------|------------------------|
Bb--10----10----15---13---------|---8---8----15---13-----|
Gb-----10-----------------------|-----9------------------|
Db------------------------------|------------------------|
Ab--------------13--------------|------------12----------|
Eb--10--------------------------|---8--------------------|
   B    Dm
Eb-------13---15---17-H20P------|
Bb--6---------------------------|
Gb------------------------------|
Db-------12---------------------|
Ab------------------------------|
Eb--6---------------------------|


Intro:
Riff 1 - x2

Main Part:
Riff 1 - x2 => Riff 2 - x2

Riff 1 - x2 => Riff 2 - x2

Bridge: it is chords, which are written in a top of

Riff 2 - x2 (tremolo)

Solo:
                                                      x4         loooooong
------------------------|-------------------------|-13-----|---(---b20---)-|
--8-10-11-11-10-8-------|--b8-10-11-11-10-8-------|----11--|---------------|
------------------------|-------------------------|--------|---------------|
------------------------|-------------------------|--------|---------------|
------------------------|-------------------------|--------|---------------|
------------------------|-------------------------|--------|---------------|


p.s. sorry, that i didnt subscribe lyrics, because my english is not well(

Grupfrut


http://ahomeforhalves.com/
Tap to rate this tab
 
# A B C D E F G H I J K L M N O P Q R S T U V W X Y Z