Song name
# A B C D E F G H I J K L M N O P Q R S T U V W X Y Z

Ham Sandwich - The Naturist tab

ARTIST: Ham Sandwich
SONG: The Naturist
ALBUM: White Fox
TABBER: Number1spaniard


http://hamsandwichmusic.com/home.html

*****************Standard Tuning, no capo*****************

Intro and verse: (Guitar 1)
e|------------------------------------------------------|
B|------------------------------------------------------|
G|------------------------------------------------------|   x3
D|--3--3--3--3--3--3--3--3--3--3--3--3--3--3--3--3------|
A|0--0--0--0--1--1--1--1--------------------------------|
E|-------------------------1--1--1--1--1--1--1--1-------|


e|------------------------------------------------------|
B|------------------------------------------------------|
G|------------------------------------------------------| 
D|--3--3--3--3--3--3--3--3--3--3--3--3--3---------------|
A|0--0--0--0--1--1--1--1---1----1--1--1-----------------|
E|---------------------------1-----------1--------------|
 


e|------------------------------------------------------|
B|------------------------------------------------------|
G|------------------------------------------------------|
D|------------------------------------------------------|
A|------------------------------------------------------|
E|------------------------------------------------------|      


e|------------------------------------------------------|
B|------------------------------------------------------|
G|------------------------------------------------------|
D|------------------------------------------------------|
A|------------------------------------------------------|
E|------------------------------------------------------|      
   


Tap to rate this tab
 
# A B C D E F G H I J K L M N O P Q R S T U V W X Y Z