Song name
# A B C D E F G H I J K L M N O P Q R S T U V W X Y Z

Hamlet - Imagine tab

Esta es la mejor canción de esta banda espero les guste.


ACORDES EN QUINTAS UTILIZADOS EN ESTA CANCION:

   F#5   E5    D5    G#5   A5    B5
e-----------------------------------------------------|
B-----------------------------------------------------|
G---------------7-------------------------------------|
D---4-----2-----7-----6-----7-----9-------------------|
A---4-----2-----5-----6-----7-----9-------------------|
E---2-----0-----------4-----5-----7-------------------|

Espero les guste esta canción de esta bandota

Intro:

e-2222222222---------------------------------------------|
B------------5555555555--7777777777--5555555555----------|
G--------------------------------------------------------|
D--------------------------------------------------------|
A--------------------------------------------------------|
E--------------------------------------------------------|

e-----------777--999---------------------------------------|
B-77777777-----------9999999999--7777777777--9999999999----|
G----------------------------------------------------------|
D----------------------------------------------------------|
A----------------------------------------------------------|
E----------------------------------------------------------|


La segunda guitarra acompańa todo el punteado anterior con los acordes:

F#5      	E5

e-------------------------------------------------|
B-------------------------------------------------|
G-------------------------------------------------|
D---4-----2---------------------------------------|
A---4-----2---------------------------------------|
E---2-----0---------------------------------------|


Se termina el punteado y se rasga F#5


F#5            E5
Anocheció y me alejé
D5               E5
Tuve tiempo para suplicar
F#5                 E5
Dame fuerzas por ultima vez
D5                E5    D5  F#5  E5
Necesito volver a creer


E5       D5   F#5  E5
Imaginé desear
E5           D5     F#5  E5
Imaginé que inventé
E5              D5    F#5      E5  F#5
Imagina que es verdad lo que sońé


F#5           E5
Puedo marchar sin tropezar
D5          E5
Puedo vivir sin respirar
F#5               E5
No quiero ver mas allá
        D5                      E5   D5  F#5  E5
Y ahora se... se que no hay nada más

E5       D5   F#5  E5
Imaginé desear
E5           D5     F#5  E5
Imaginé que inventé
E5              D5    F#5      E5
Imagina que es verdad lo que sońé

D5       F#5-G#5-A5-B5  D5         F#5
Apareces................en la adversidad
D5         F#5-G#5-A5-B5   D5        F#5
Enloqueces.................mi normalidad

E5       D5   F#5  E5
Imaginé desear
E5           D5     F#5  E5
Imaginé que inventé
E5              D5    F#5      E5
Imagina que es verdad lo que sońé

D5   F#5   E5                D5           F#5  E5
Imaginé conocer lo que ahora debo de reconocer
D5   F#5         E5            D5        F#5    E5
Imaginé que encontré lo mas preciado que pude tener

Cualquier comentario o sugerencia me escriben al mail Gracias
ˇ!!!Que Viva Ecuador!!!!!!
Tap to rate this tab
# A B C D E F G H I J K L M N O P Q R S T U V W X Y Z