Song name
# A B C D E F G H I J K L M N O P Q R S T U V W X Y Z

Hammerfall - The Templar Flame tab

#----------------------------------PLEASE NOTE---------------------------------#
#This file is the author's own work and represents their interpretation of the #
#song. You may only use this file for private study, scholarship, or research. #
#------------------------------------------------------------------------------#

THE TEMPLAR FLAME
As recorded by Hammerfall
(From the 2005 Album CHAPTER V: UNBENT, UNBOUND, UNBROKEN)


Transcribed by Ivan - (peekaboo104@hotmail.com)

 Words and Music by HF

 

Gtr I (Eb Ab Db Gb Bb Eb) - 'Oscar Dronjak'
Gtr II (Eb Ab Db Gb Bb Eb) - 'Stefan Elmgren'
Gtr III (Eb Ab Db Gb Bb Eb) - 'Overdubb'


   Intro
    Moderately Q=100
    E5                  C5                     D5
   4/4
    Gtr I
     W                   W                      W
||--------------------|----------------------|-------------------|
||o-------------------|----------------------|-------------------|
||--------------------|--5-------------------|--7----------------|
||---2----------------|--5-------------------|--7----------------|
||o--2----------------|--3-------------------|--5----------------|
||---0----------------|----------------------|-------------------|
|
|   Gtr II
|           ~~~~~~~             ~~~~~~~                ~~~~~~~
|    Q   E  E  +H        Q   E  E  +E  E E E    Q   E  E  +H
||--------------------|----------------------|-------------------|
||o--8---7------------|--8---7---------8-7---|--7---8-10-(10)----|
||----------9--(9)----|---------9--(9)-----9-|-------------------|
||--------------------|----------------------|-------------------|
||o-------------------|----------------------|-------------------|
||--------------------|----------------------|-------------------|
|
|   Gtr III
|           ~~~~~~~             ~~~~~~~                ~~~~~~~
|    Q   E  E  +H        Q   E  E  +H           Q   E  E  +H
||--------------------|----------------------|-------------------|
||o-12--10------------|-12--10---------------|-10--12-13-(13)----|
||---------12-(12)----|--------12-(12)-------|-------------------|
||--------------------|----------------------|-------------------|
||o-------------------|----------------------|-------------------|
||--------------------|----------------------|-------------------|


 1.                         2.
  B5                         B5
                     PM|
   H.                E E      H.                Q
|-------------------------||-----------------------||
|------------------------o||-----------------------||
|--4----------------------||--4--------------------||
|--4----------------------||--4--------------------||
|--2---------------------o||--2--------------------||
|--------------------3-2--||-----------------------||
|
|           ~~~~~~~~                   ~~~~~~~~
|  Q    E   E   +H            Q    E   E   +Q   Q
|-------------------------||-----------------------||
|--7----8--10--(10)------o||--7----8--10--(10)-----||
|-------------------------||-----------------------||
|-------------------------||-----------------------||
|------------------------o||-----------------------||
|-------------------------||-----------------------||
|
|           ~~~~~~~~                   ~~~~~~~~
|  Q    E   E   +H            Q    E   E   +Q   Q
|-------------------------||-----------------------||
|-10---12-[13]-(13)------o||-10---12-[13]-(13)-----||
|-------------------------||-----------------------||
|-------------------------||-----------------------||
|------------------------o||-----------------------||
|-------------------------||-----------------------||


  E5                  D5   E5          C5 D5
  Gtrs I, II
    PM------------|          PM------|
  E S S E S S E S S S E.   E S S E S S Q  Q
|------------------------|-------------------|
|------------------------|-------------------|
|------------------------|-------------------|
|-9-----------------9-7--|-9-----------5--7--|
|-7-----------------7-5--|-7-----------3--5--|
|---0-0-0-0-0-0-0-0------|---0-0-0-0-0-------|


  E5                  D5   G5     B5
    PM------------|
  E S S E S S E S S S E.   H    H
|------------------------|------------||
|------------------------|------------||
|------------------------|------------||
|-9-----------------9-7--|------4-----||
|-7-----------------7-5--|-5----2-----||
|---0-0-0-0-0-0-0-0------|-3----------||


   1st and 2nd Verses
    E5                  D5   E5          C5 D5
      PM------------|          PM------|
    E S S E S S E S S S E.   E S S E S S Q  Q
||-------------------------|-------------------|
||o------------------------|-------------------|
||-------------------------|-------------------|
||--9-----------------9-7--|-9-----------5--7--|
||o-7-----------------7-5--|-7-----------3--5--|
||----0-0-0-0-0-0-0-0------|---0-0-0-0-0-------|


  E5                  D5   G5   B5
    PM------------|
  E S S E S S E S S S E.   H    H
|------------------------|-----------|
|------------------------|-----------|
|------------------------|-----------|
|-9-----------------9-7--|------4----|
|-7-----------------7-5--|-5----2----|
|---0-0-0-0-0-0-0-0------|-3---------|


  E5                  D5   E5          C5 D5
    PM------------|          PM------|
  E S S E S S E S S S E.   E S S E S S Q  Q
|------------------------|-------------------|
|------------------------|-------------------|
|------------------------|-------------------|
|-9-----------------9-7--|-9-----------5--7--|
|-7-----------------7-5--|-7-----------3--5--|
|---0-0-0-0-0-0-0-0------|---0-0-0-0-0-------|


  E5                  D5   G5   B5
    PM------------|
  E S S E S S E S S S E.   H    H
|------------------------|-----------||
|------------------------|-----------||
|------------------------|-----------||
|-9-----------------9-7--|------4----||
|-7-----------------7-5--|-5----2----||
|---0-0-0-0-0-0-0-0------|-3---------||


 Pre-Chorus
  F#5                       G5          A5    G5
    PM|   PM|   PM|   PM|     PM|   PM|   PM|   PM|
  E S S E S S E S S E S S   E S S E S S E S S E S S
|-------------------------|-------------------------|
|-------------------------|-------------------------|
|-------------------------|-------------------------|
|-------------------------|-------------------------|
|-4-----4-----4-----4-----|-5-----5-----7-----5-----|
|-2-2-2-2-2-2-2-2-2-2-2-2-|-3-3-3-3-3-3-5-5-5-3-3-3-|


  F#5                       G5       A5
    PM|   PM|   PM|   PM|
  E S S E S S E S S E S S   E E +Q   E  E  +E  E
|-------------------------|----------------------||
|-------------------------|----------------------||
|-------------------------|----------------------||
|-------------------------|-5-5-(5)--7-----------||
|-4-----4-----4-----4-----|-5-5-(5)--7-----------||
|-2-2-2-2-2-2-2-2-2-2-2-2-|-3-3-(3)--5-12-(12)s0-||


 Chorus
  E5         C5         D5         B5
                                           PM|
  W          W          W          H.      E E
|----------|----------|----------|-------------|
|----------|----------|----------|-------------|
|----------|-5--------|-7--------|-4-----------|
|-2--------|-5--------|-7--------|-4-----------|
|-2--------|-3--------|-5--------|-2-----------|
|-0--------|----------|----------|---------3-2-|


  E5         C5         D5         B5
                                           PM|
  W          W          W          H.      E E
|----------|----------|----------|--------------||
|----------|----------|----------|-------------o||
|----------|-5--------|-7--------|-4------------||
|-2--------|-5--------|-7--------|-4------------||
|-2--------|-3--------|-5--------|-2-----------o||
|-0--------|----------|----------|---------3-2--||


   Bridge
                  1.
    G5    Bb5      G5    Bb5      G5    Bb5      F#5
                                                   PM|   PM|   PM|   PM|
    E E E H    E   E E E H    E   E E E H    E   E S S E S S E S S E S S
||---------------|--------------|--------------|---------------------------||
||o--------------|--------------|--------------|--------------------------o||
||---------------|--------------|--------------|---------------------------||
||--5-5---8----x-|-5-5---8----x-|-5-5---8----x-|---------------------------||
||o-5-5---8----x-|-5-5---8----x-|-5-5---8----x-|-4-----4-----4-----4------o||
||--3-3---6----x-|-3-3---6----x-|-3-3---6----x-|-2-2-2-2-2-2-2-2-2-2-2-2---||


  2.
  G5    F5       F#5
                   PM|   PM|   PM|   PM|
  E E E H    E   E S S E S S E S S E S S
|--------------|-------------------------|
|--------------|-------------------------|
|--------------|-------------------------|
|-5-5---3----x-|-------------------------|
|-5-5---3----x-|-4-----4-----4-----4-----|
|-3-3---1----x-|-2-2-2-2-2-2-2-2-2-2-2-2-|


  G5                        G5       A5     E5
    PM|   PM|   PM|   PM|
  E S S E S S E S S E S S   E E +Q   H      W
|-------------------------|---------------|------||
|-------------------------|---------------|------||
|-------------------------|---------------|------||
|-------------------------|-5-5-(5)--7----|-2----||
|-5-----5-----5-----5-----|-5-5-(5)--7----|-2----||
|-3-3-3-3-3-3-3-3-3-3-3-3-|-3-3-(3)--5----|-0----||


 Guitar Solo - S.Elmgren
        E5                                D5
  Gtr I
             PM|    PM|             PM--|
          E  S S E  S  S         E  S S S E.
|--------------------------------------------------|
|--------------------------------------------------|
|--------------------------------------------------|
|-----------------------------------------7--------|
|---------2------2---------------2--------5--------|
|---------0--0-0-0--0--0---------0--0-0-0----------|
|
| Gtr II
|                                ~~~~
|  a     +Q.        S  S  a     +Q.           S  S
|--------------------------------------------12h14h|
|-15b17-(15)-------15p12-15b17-(15)----------------|
|--------------------------------------------------|
|--------------------------------------------------|
|--------------------------------------------------|
|--------------------------------------------------|


                        C5  D5    E5                                  D5
      PM---|        PM|              PM---|      PM|            PM--|
   E  S    S     E  S S  Q   Q    E  S    S   E  S S         E  S S S E.
|-------------------------------|------------------------------------------------|
|-------------------------------|------------------------------------------------|
|------------------------5---7--|------------------------------------------------|
|------------------------5---7--|-------------------------------------7----------|
|--2-------------2-------3---5--|-2-----------2--------------2--------5----------|
|--0--0----0-----0--0-0---------|-0--0----0---0--0-0---------0--0-0-0------------|
|
|                                                            ~~~~
|     |---3---|
|  E  S  S    S  E  E    Q   Q    E  E       +Q       a     +Q.           S  S
|-15-14h15p==14-12-14---15--14--|---17b19r==(17)-----17b19-(17)----------15h17h==|
|------------------15---17--15--|------------------------------------------------|
|-------------------------------|------------------------------------------------|
|-------------------------------|------------------------------------------------|
|-------------------------------|------------------------------------------------|
|-------------------------------|------------------------------------------------|


  C5                      B5            E5                        D5
                                            PM|    PM|      PM--|
   H                       H             E  S S E  S  S  E  S S S E.
|-------------------------------------|------------------------------------|
|-------------------------------------|------------------------------------|
|--5-----------------------4----------|------------------------------------|
|--5-----------------------4----------|---------------------------7--------|
|--3-----------------------2----------|--2------2--------2--------5--------|
|-------------------------------------|--0--0-0-0--0--0--0--0-0-0----------|
|
|                          ~~~           ~~~             ~~~
|     |--3--|     |--3--|
|  E  S  S  S  E  S  S  S  Q.    S  S    Q.        S  S  Q.           S  S
|-19-17h19p17s15-15h17p15s14----------|-12--------------12-----------12h14h|
|-------------------------------12-15-|-----------12-15--------------------|
|-------------------------------------|------------------------------------|
|-------------------------------------|------------------------------------|
|-------------------------------------|------------------------------------|
|-------------------------------------|------------------------------------|


  E5                    C5        D5
      PM---|        PM|
   E  S    S     E  S S  Q          Q
|---------------------------------------|
|---------------------------------------|
|------------------------5----------7---|
|------------------------5----------7---|
|--2-------------2-------3----------5---|
|--0--0----0-----0--0-0-----------------|
|
|                                   ~~~~
|     |---3---|
|  E  S  S    S  E  E    Q   a     +Q
|-15-14h15p==14p12-14---15--15b17-(15)--|
|------------------15---17--------------|
|---------------------------------------|
|---------------------------------------|
|---------------------------------------|
|---------------------------------------|


  E5                                                              G5
            PM---|              PM---|             PM-------|
   E        S    S     E        S    S     E       S    S    S    E.
|------------------------------------------------------------------------------|
|------------------------------------------------------------------------------|
|------------------------------------------------------------------------------|
|-----------------------------------------------------------------5------------|
|--2-------------------2-------------------2----------------------5------------|
|--0--------0----0-----0--------0----0-----0-------0----0----0----3------------|
|
|  T        T          T        T          T       T         T          T
|  |-------6--------|  |-------6--------|  |------6-------|  |-------6-------|
|  S  S  S  S  S    S  S  S  S  S  S    S  S  S S  S  S   S  S  S    S  S  S S
|-19p15p12-19p15p==12-17p14p10-17p14p==10-15p12p8-15p12p==8-14p10p===7-14p10p7-|
|------------------------------------------------------------------------------|
|------------------------------------------------------------------------------|
|------------------------------------------------------------------------------|
|------------------------------------------------------------------------------|
|------------------------------------------------------------------------------|


                                A5
   E       E       Q             E      E     Q
|----------------------------------------------------------|
|----------------------------------------------------------|
|----------------------------------------------------------|
|--5-------5---------------------7------7------------------|
|--5-------5---------------------7------7------------------|
|--3-------3---------------------5------5------------------|
|
|  T       T       T      T      T      T     T     T
|  |-----6------|  |----6-----|  |----6-----| |----6----|
|  S  S S  S  S S  S S S  S S S  S S S  S S S S S S S S S
|-15p12p8-14p10p7-12p8p5-10p7p3-12p8p5-10p7p3-8p5p2-7p3p0--|
|----------------------------------------------------------|
|----------------------------------------------------------|
|----------------------------------------------------------|
|----------------------------------------------------------|
|----------------------------------------------------------|


  E5
    W          +W                 +W           +W
|------------|------------------|------------|--------||
|------------|------------------|------------|--------||
|------------|------------------|------------|--------||
|---2--------|-(2)--------------|-(2)--------|-(2)----||
|---2--------|-(2)--------------|-(2)--------|-(2)----||
|---0--------|-(0)--------------|-(0)--------|-(0)----||
|
|   ~~~
|   W           H       a  H       W            W
|------------|-15-----(15)sx----|------------|--------||
|-/17--------|------------------|------------|--------||
|------------|------------------|------------|--------||
|------------|------------------|------------|--------||
|------------|------------------|------------|--------||
|------------|------------------|------------|--------||


   Interlude
    N.C.
    Gtr II
            ~~~~~~~             ~~~~~~~
     Q   E  E  +H        Q   E  E  +E  E E E
||--------------------|----------------------|
||o--8---7------------|--8---7---------8-7---|
||----------9--(9)----|---------9--(9)-----9-|
||--------------------|----------------------|
||o-------------------|----------------------|
||--------------------|----------------------|
|
|   Gtr III
|           ~~~~~~~             ~~~~~~~
|    Q   E  E  +H        Q   E  E  +H
||--------------------|----------------------|
||o-12--10------------|-12--10---------------|
||---------12-(12)----|--------12-(12)-------|
||--------------------|----------------------|
||o-------------------|----------------------|
||--------------------|----------------------|


          ~~~~~~~              ~~~~~~~~
   Q   E  E  +H        Q   E   E   +H
|-------------------|----------------------||
|--7---8-10-(10)----|--7---8--10--(10)----o||
|-------------------|----------------------||
|-------------------|----------------------||
|-------------------|---------------------o||
|-------------------|----------------------||
|
|         ~~~~~~~              ~~~~~~~~
|  Q   E  E  +H        Q   E   E   +H
|-------------------|----------------------||
|-10--12-13-(13)----|-10--12-[13]-(13)----o||
|-------------------|----------------------||
|-------------------|----------------------||
|-------------------|---------------------o||
|-------------------|----------------------||


   Outro
    E5                  C5
    Gtr I
     W                   W
||--------------------|----------------------|
||o-------------------|----------------------|
||--------------------|--5-------------------|
||---2----------------|--5-------------------|
||o--2----------------|--3-------------------|
||---0----------------|----------------------|
|
|   Gtr II
|           ~~~~~~~             ~~~~~~~
|    Q   E  E  +H        Q   E  E  +E  E E E
||--------------------|----------------------|
||o--8---7------------|--8---7---------8-7---|
||----------9--(9)----|---------9--(9)-----9-|
||--------------------|----------------------|
||o-------------------|----------------------|
||--------------------|----------------------|
|
|   Gtr III
|           ~~~~~~~             ~~~~~~~
|    Q   E  E  +H        Q   E  E  +H
||--------------------|----------------------|
||o-12--10------------|-12--10---------------|
||---------12-(12)----|--------12-(12)-------|
||--------------------|----------------------|
||o-------------------|----------------------|
||--------------------|----------------------|


  D5                  B5                      E5 E5D5  E5
   W                   W                   3x Q  S E S E E Q
|-------------------|----------------------||------------------*|
|-------------------|---------------------o||------------------*|
|--7----------------|--4-------------------||----9-7-7-9-------*|
|--7----------------|--4-------------------||----9-7-7-9-------*|
|--5----------------|--2------------------o||-2--7-5-5-7-------*|
|-------------------|----------------------||-0----------------*|
|
|         ~~~~~~~              ~~~~~~~~
|  Q   E  E  +H        Q   E   E   +H      3x Q  S E S E E Q
|-------------------|----------------------||------------------*|
|--7---8-10-(10)----|--7---8--10--(10)----o||------------------*|
|-------------------|----------------------||----9-7-7-9-------*|
|-------------------|----------------------||----9-7-7-9-------*|
|-------------------|---------------------o||-2--7-5-5-7-------*|
|-------------------|----------------------||-0----------------*|
|
|         ~~~~~~~              ~~~~~~~~
|  Q   E  E  +H        Q   E   E   +H      3x Q  S E S E E Q
|-------------------|----------------------||------------------*|
|-10--12-13-(13)----|-10--12-[13]-(13)----o||------------------*|
|-------------------|----------------------||----9-7-7-9-------*|
|-------------------|----------------------||----9-7-7-9-------*|
|-------------------|---------------------o||-2--7-5-5-7-------*|
|-------------------|----------------------||-0----------------*|




--------------------------------------------------------------------------------


Duration Legend
---------------
W - whole; H - half; Q - quarter; E - 8th; S - 16th; T - 32nd; X - 64th; a - acciaccatura
+ - note tied to previous; . - note dotted; .. - note double dotted
Uncapitalized letters represent notes that are staccato (1/2 duration)
Irregular groupings are notated above the duration line
Duration letters will always appear directly above the note/fret number it represents the
duration for.  Duration letters with no fret number below them represent rests.  Multi-
bar rests are notated in the form Wxn, where n is the number of bars to rest for.  Low
melody durations appear below the staff

Tablature Legend
----------------
 h   - hammer-on
 p   - pull-off
 b   - bend
 pb  - pre-bend
 r   - bend release (if no number after the r, then release immediately)
 /\  - slide into or out of (from/to "nowhere")
 s   - legato slide
 S   - shift slide
 - natural harmonic
[n]  - artificial harmonic
n(n) - tapped harmonic
 ~   - vibrato
 tr  - trill
 T   - tap
 TP  - trem. picking
 PM  - palm muting
\n/  - tremolo bar dip; n = amount to dip
 \n  - tremolo bar down
 n/  - tremolo bar up
/n\  - tremolo bar inverted dip
 =   - hold bend; also acts as connecting device for hammers/pulls
 <> - volume swell (louder/softer)
 x   - on rhythm slash represents muted slash
 o   - on rhythm slash represents single note slash

Misc Legend
-----------
 |  - bar
||  - double bar
||o - repeat start
o|| - repeat end
*|  - double bar (ending)
 :  - bar (freetime)
 $  - Segno
 &  - Coda
Tempo markers -  = BPM(8/16=s8/s16), where s8 = swing 8ths, s16 = swing 16ths

Tap to rate this tab
# A B C D E F G H I J K L M N O P Q R S T U V W X Y Z