Song name
# A B C D E F G H I J K L M N O P Q R S T U V W X Y Z

Hammerfall - Metal Heart tab

-------------------------------------------------------------------------------
			 Hammerfall - Metal Heart(Intro)
-------------------------------------------------------------------------------

Tabbed by: Harald Hveem
email: ace_ventuora@hotmail.com

-|--------------------------------------------------------------------------|-
-|--------------------------------------------------------------------------|-
-|-4--3--------------4-4-3h4p3----------------------------4-4-4-3-----------|-
-|------5-4-2---4-5------------5-4-3---4-7-5-4-212-4-5-2----------5-2-4-----|-
-|--------------------------------------------------------------------------|-
-|--------------------------------------------------------------------------|-
                                                                              

-|--------------------------------------------------------------------------|-
-|--------------------------------------------------------------------------|-
-|-4-4-4-3-------------4-4-4-3h4h3----------------------------4-4-4-3-------|-
-|---------5-4-2--4-5--------------5-4-3---4-7-5-4-212-4-5-2----------5-2-4-|-
-|--------------------------------------------------------------------------|-
-|--------------------------------------------------------------------------|-


I tried to tab out the whole song, but it's no good, to fast for me. But the
itro is fun to play ;) If you find tab for the whole song, pleas let me know
Tap to rate this tab
# A B C D E F G H I J K L M N O P Q R S T U V W X Y Z