Song name
# A B C D E F G H I J K L M N O P Q R S T U V W X Y Z

Hammerfall - Were Gonna Make It tab

We’re Gonna Make It
By HammerFall (Twisted Sister Cover)
Tabbed by Burning Sword of Surtur

Might be a few mistakes, and you will notice that the solo is missing. Play it in 
tuning, even though HammerFall probably plays in a drop Eb. Guess I’m just too lazy. If you 
play it in standard tuning, why tune it down? Never the less, Let’s Rock ‘n Roll!

Main Riff
|-------------|
|-------------|
|-----2---4-2-|
|-4-4-2-4-4-2-|
|-4-4---4-----|
|-------------|
Play 8 times.

Verse
|-------------------------------------------------------------------------|
|-------------------------------------------------------------------------|
|-------------------------------------------------------------------------|
|-4-4----4-4----4-4----4-4----7-7----7-7----7-7-------------------5-------|
|-4-4----4-4----4-4----4-4----5-5----5-5----5-5----7--4-7--2---7--2-----2-|
|-2-2----2-2----2-2----2-2-------------------------5--2-5--0---5-----5--0-|

Play Main Riff Twice

Chorus
|----------------------------------|
|----------------------------------|
|--------------2---4-2-----2---4-2-|
|-2--------4-4-2-4-4-2-4-4-2-4-4-2-|
|-2--------4-4---4-----4-4---4-----|
|-0--------------------------------|
Play Three Times, then:

|---------|
|---------|
|-------5-|
|-2---2-5-|
|-2---2-3-|
|-0---0---|

Play Main Riff 4 times, then verse, main riff twice, and the chorus.

Play Main Riff 8 times as background for solo, then play the chorus.

Then comes the break with the vocal part “twisted fucking sister…”

Main Riff 8 times, before playing the chorus, and the main riff 3 times before ending 
a:

|---|
|---|
|---|
|-4-|
|-4-|
|-2-|

Strum the strings ‘till the end.

A Metal-Heart is hard to tear apart.
Tap to rate this tab
# A B C D E F G H I J K L M N O P Q R S T U V W X Y Z