Guitaretab - guitar tabs
Song name
# A B C D E F G H I J K L M N O P Q R S T U V W X Y Z

Hammerfall - Punish And Enslave tab

PUNISH AND ENSLAVE - Hammerfall

Standard Tuning

This tab ainít perfect with the tacts. At least the most ackord patterns are right. So 
just to enjoy  !


Intro
Riff 1
e---------------------------------------------------------------------------|
b---------------------------------------------------------------------------|
g----------3---5----------6-5-------3-5-------------------------------------|
d--5-5-5--3--5--5-5-5--6-5-5-5--3-5--5-5-5---3-5-3-------------- x 3--------|
a--5-5-5---------5-5-5-------5-5--------5-5-5---3-5-3-----------------------|
e---------------------------------------------------------------------------|

e--------------------------------------------------------------------------|
b--------------------------------------------------------------------------|
g----------3---5-----------6-5----------3-5---------5----------------------|
d--5-5-5--3--5---5-5-5--6-5--5-5-5--3-5-----3--5--------- ------x 1--------|
a--5-5-5----------5-5-5--------5-5-5-----------3--3------------------------|
e-------------------------------------------------- 1----------------------|

Vers 1

e------------------------------------------------------------------------|
b------------------------------------------------------------------------|
g----------------------------6-5-----------------------------------------|
d--5555555555555555--6-5--55555555555555--3-5-3--------------------------|
a--5555555555555555--4-3--55555555555555--3-5-3--------------------------|
e--3333333333333333--------33333333333333--------------------------------|

e------------------------------------------------------------------------|
b------------------------------------------------------------------------|
g----------------------------6-5------------------------------5----------|
d--5555555555555555--6-5----5555555555555---3--5-------------------------|
a--5555555555555555--4-3----5555555555555---3--3-------------------------|
e--3333333333333333----------3333333333333---1---------------------------|

Play that twice

Bridge 1:

e-------------------------------------------------------------------------|
b-------------------------------------------------------------------------|
g-77777777--7557--8---10--------------------------------------------------|
d-77777777--7557--8---10--------------------------------------------------|
a-55555555--5335--6---8---------------------------------------------------|
e-------------------------------------------------------------------------|

Chorus
e------------------------------------------------------------------------|
b------------------------------------------------------------------------|
g----12--10---12----10---777---888---------------------------------------|
d----12--------12----10---777---888--------------------------------------|
a----10---8----10----8----555---666--------------------------------------|
e------------------------------------------------------------------------|

e-----------------------------------------------------------------------|
b-----------------------------------------------------------------------|
g--12--10----12---10-----888----777-------------------------------------|
d--12---------12---10-----888----777------------------------------------|
a--10---8----10----8------666----555------------------------------------|
e-----------------------------------------------------------------------|

Riff 1
e---------------------------------------------------------------------------|
b---------------------------------------------------------------------------|
g----------3---5----------6-5-------3-5-------------------------------------|
d--5-5-5--3--5--5-5-5--6-5-5-5--3-5--5-5-5---3-5-3-------------- x 1--------|
a--5-5-5---------5-5-5-------5-5--------5-5-5---3-5-3-----------------------|
e---------------------------------------------------------------------------|

e--------------------------------------------------------------------------|
b--------------------------------------------------------------------------|
g----------3---5-----------6-5----------3-5-------5------------------------|
d--5-5-5--3--5---5-5-5--6-5--5-5-5--3-5---3--5-------------------  x 1-----|
a--5-5-5----------5-5-5--------5-5-5---------3--3--------------------------|
e------------------------------------------------1-------------------------|


Vers 2
[ Tab from: http://www.guitaretab.com/h/hammerfall/184359.html ]
e------------------------------------------------------------------------|
b------------------------------------------------------------------------|
g----------------------------6-5-----------------------------------------|
d--5555555555555555--6-5--55555555555555--3-5-3--------------------------|
a--5555555555555555--4-3--55555555555555--3-5-3--------------------------|
e--3333333333333333--------33333333333333--------------------------------|

e------------------------------------------------------------------------|
b------------------------------------------------------------------------|
g----------------------------6-5------------------------------5----------|
d--5555555555555555--6-5----5555555555555---3--5-------------------------|
a--5555555555555555--4-3----5555555555555---3--3-------------------------|
e--3333333333333333----------3333333333333---1---------------------------|

Bridge 1:

e-------------------------------------------------------------------------|
b-------------------------------------------------------------------------|
g-77777777--7557--8---10--------------------------------------------------|
d-77777777--7557--8---10--------------------------------------------------|
a-55555555--5335--6---8---------------------------------------------------|
e-------------------------------------------------------------------------|

Chorus
e------------------------------------------------------------------------|
b------------------------------------------------------------------------|
g----12--10---12----10---777---888---------------------------------------|
d----12--------12----10---777---888--------------------------------------|
a----10---8----10----8----555---666--------------------------------------|
e------------------------------------------------------------------------|

e-----------------------------------------------------------------------|
b-----------------------------------------------------------------------|
g--12--10----12---10-----888----777-------------------------------------|
d--12---------12---10-----888----777------------------------------------|
a--10---8----10----8------666----555------------------------------------|
e-----------------------------------------------------------------------|

SOLO
G    | G     |Eb    |  C    | G    |F      |Eb    |D     |G    | G    |A    | A
|G   D   |A    | A    |G   D

STICK
Eb    |C     |G     |F    |Eb    |D     |Bb   |C    |Eb    |C     |G     |F    |Eb
    |D     |Bb   |C    | Eb   |F

Riff 1
e---------------------------------------------------------------------------|
b---------------------------------------------------------------------------|
g----------3---5----------6-5-------3-5-------------------------------------|
d--5-5-5--3--5--5-5-5--6-5-5-5--3-5--5-5-5---3-5-3-------------- x 2--------|
a--5-5-5---------5-5-5-------5-5--------5-5-5---3-5-3-----------------------|
e---------------------------------------------------------------------------|

Bridge 3

e-------------------------------------------------------------------------|
b-------------------------------------------------------------------------|
g-77777777--7557---77777777---5555----------------------------------------|
d-77777777--7557---77777777---5555----------------------------------------|
a-55555555--5335---55555555---3333----------------------------------------|
e-------------------------------------------------------------------------|

e-------------------------------------------------------------------------|
b-------------------------------------------------------------------------|
g-77777777--7557--8---10--------------------------------------------------|
d-77777777--7557--8---10--------------------------------------------------|
a-55555555--5335--6---8---------------------------------------------------|
e-------------------------------------------------------------------------|

Chorus
e-----------------------------------------------------------------------|
b-----------------------------------------------------------------------|
g--12--10----12---10-----888----777-------------------------------------|
d--12---------12---10-----888----777----------------------------  x 4---|
a--10---8----10----8------666----555------------------------------------|
e-----------------------------------------------------------------------|

End on  an G

Tabbed by Jesper Pantzar

Jeppe_killen@hotmail.com
Related for Punish And Enslave tab