Song name
# A B C D E F G H I J K L M N O P Q R S T U V W X Y Z

Hammerfall - Howlin With The Pac tab

----------------------------------------------------------------------------
	                 Howlin' With The Pac - Hammerfall
----------------------------------------------------------------------------
Tabbed by:IbanezDudeCK

Tuning:down half step (Eb Ab Db Gb Bb eb)

  pm-|  pm-|  pm-|  pm-|          pm-|  pm-|  pm-----------------|
e|-------------------------------|-------------------------------|
B|-------------------------------|-------------------------------|
G|----4-----4-----4-----7--7-6/7-|----4-----4-----7/9-9-9--9-7---|
D|----4-----4-----4-----7--7-6/7-|----4-----4-----7/9-9-9--9-7---|
A|2-2-2-2-2-2-2-2-2-2-2-5--5-4/5-|2-2-2-2-2-2-2-2-5/7-7-7--7-5---|
E|-------------------------------|-------------------------------|

  pm-| pm-|  pm-|  pm-|           pm-| pm-|    pm-|   pm---------|     x2
e|-------------------------------|-------------------------------|
B|-------------------------------|-------------------------------|
G|----4-----4-----4-----7--7-6/7-|-------------------------------|
D|----4-----4-----4-----7--7-6/7-|----5-----5-5-----7-----7-7----|
A|2-2-2-2-2-2-2-2-2-2-2-5--5-4/5-|----5-----5-5-----7-----7-7----|
E|-------------------------------|3-3-3-3-3-3-3-5-5-5-5-5-5-5----|

  pm-| pm-|  pm-|  pm-|           pm-| pm------------------------|
e|-------------------------------|-------------------------------|
B|-------------------------------|-------------------------------|
G|----4-----4-----4-----4--4-2-4-|----4-----4-7~~~---------------|
D|----4-----4-----4-----4--4-2-4-|----4-----4-7~~~---------------|
A|2-2-2-2-2-2-2-2-2-2-2-2--2-0-2-|2-2-2-2-2-2-5~~~---------------|
E|-------------------------------|-------------------------------|

Note: both guitars are the same pattern, but Stefan hits a pinch harmonic on the 5th 
on the A string at the end instead of the chord.

| /  slide up
| \  slide down
| h  hammer-on
| p  pull-off
| ~  vibrato
| +  harmonic
| x  Mute note
| pm Palm Mute
Tap to rate this tab
 
# A B C D E F G H I J K L M N O P Q R S T U V W X Y Z