Song name
# A B C D E F G H I J K L M N O P Q R S T U V W X Y Z

Hammerfall - The Unforgiving Blade tab

----------------------------------------------------------------------------
UNFORGIVEN BLADE-HAMMERFALL
----------------------------------------------------------------------------

An excellent song by Hammerfall.Let΄s have try!!!!!!!!!!

Advise/Notes:You should always be quick.In order to play
the chorus,you will need 2 guitarists.Because is a bit
dificault always look to the time of the song that I have
written above the tabs.That is all!!!!!!

Tab Key:

p=pull-off
b=bend
r=return bend
/=slide up
\=slide down
pm=palm mute
h=hammer-on
()=ghost note
X=dead note


                          Intro:

time=0:01
e----------------------------------------------------|
B----------------------------------------------------|
G----------------------------------------------------|
D----------------------------------------------------|
A------------------------------------------------5-3-|
E-5-5-5-5-5-5-5-5-5-5-5-5-5-5-5-5-5-5-5-5-5-5-5-5----|

                         Verse:

time=0:08
e------------------------------------------------------------|
B------------------------------------------------------------|
G------------------------------------------------------------|
D------------------------------------------------------------|
A--------------------5-3-5-------------------5-3-5-3-5-3-3-5-|
E-5-5-5-5-5-5-5-5-5-5-----5-5-5-5-5-5-5-5-5-5----------------|x2

time=0:23
e------------------------------------------------|
B------------------------------------------------|
G------------------------------------------------|
D------------------------------------------------|
A--------------------------------5-3-5-3-5-3-3-5-|
E-5-5-5-5-5-5-5-5-5-5-5-5-5-5-5-5----------------|

time=0:30
e------------------------------------|
B------------------------------------|
G------------------------------------|
D------------------------------------|
A--------------------5-3-5-3-5-3-3-5-|
E-5-5-5-5-5-5-5-5-5-5----------------|

time=0:35
e-------------------------------------------------|
B-------------------------------------------------|
G-------------------------------------------------|
D-------------------------------------------------|
A-------------------------------------------------|
E-5-5-5-5-5-5-5-5-5-5-5-5-5-5-5-5-5-5-5-5-5-5-5-5-|

time=0:41
e---------------------------------------------------------------|
B---------------------------------------------------------------|
G---------------------------------------------------------------|
D---------------------------------------------------------------|
A---------------------7-6-7---------------------7-6-7-6-7-6-6-7-|
E-5-5-5-5-5-5-5-5-5-5-5-4-5-5-5-5-5-5-5-5-5-5-5-5-4-5-4-5-4-4-5-|x2


time=o:57
e-------------------------------------------------|
B-------------------------------------------------|
G-------------------------------------------------|
D-------------------------------------------------|
A---------------------------------7-6-7-6-7-6-6-7-|
E-5-5-5-5-5-5-5-5-5-5-5-5-5-5-5-5-5-4-5-4-5-4-4-5-|
                      Pre-Chorus:

time=1:03
e---------------------------------------------------------------|
B---------------------------------------------------------------|
G---------------------------------------------------------------|
D-4-5-6------------2--5--6-7-9--7--9--7--5----------------------|
A-4-5-6-9-8-7-6-7--2--5--6-7-9--7--9--7--5------7-----7-----7-8-|
E-2=3-4-7-6-5-4-5--0--3--4-5-7--5--7--5--3--5-5-5-5-5-5-5-5-5-6-|

                         Chorus:

time=1:21
e-----------------------------------------|
B-----------------------------------------|
G-----------------------------------------|
D-5-5-----------------8-8-----------------|
A-5-5-7-6-7-6-7-6-6-7-8-8-7-6-7-6-7-6-6-7-|
E-3-3-5-4-5-4-5-4-4-5-6-6-5-4-5-4-5-4-4-5-|

time=1:30
e-------------------------------|
B-------------------------------|
G-------------------------------|
D-7-7-----------------8-8-7-7-5-|
A-7-7-7-6-7-6-7-6-6-7-8-8-7-7-5-|
E-5-5-5-4-5-4-5-4-4-5-6-6-5-5-3-|

                      Bridge:

time=1:37
e---------------------------------|
B---------------------------9-7-6-|
G------------4-4--6-6-------9-7-6-|
D------4-4---4-4--6-6--5-5--7-5-4-|
A-5-7--4-4---2-2--4-4--5-5--------|
E-3-5--2-2-------------3-3--------|

                     Solo(rythm):

time=1:51
e----------------------------------|
B----------------------------------|
G------------------7---7---7---7---|
D---7---7---7---7--7---7---7---7---|
A---7---7---7---7--5-5-5-5-5-5-5-5-|
E-5-5-5-5-5-5-5-5-5----------------|repeat that till the solo ends

                       Pre-Chorus:

time=2:22
e---------------------------------------------------------------|
B---------------------------------------------------------------|
G---------------------------------------------------------------|
D-4-5-6------------2--5--6-7-9--7--9--7--5----------------------|
A-4-5-6-9-8-7-6-7--2--5--6-7-9--7--9--7--5------7-----7-----7-8-|
E-2=3-4-7-6-5-4-5--0--3--4-5-7--5--7--5--3--5-5-5-5-5-5-5-5-5-6-|

                         Chorus:

time=2:35
e---------------------------------------|
B---------------------------------------|
G---------------------------------------|
D-5-5-----------------------------------|
A-5-5-5-3-5-3-5-3-3-5-----5-3-5-3-5-3-3-|
E-3-3-----------------------------------|

time=2:43
e-------------------------------|
B-------------------------------|
G-------------------------------|
D-7-7-----------------8-8-7-7-5-|
A-7-7-5-3-5-3-5-3-3-5-8-8-7-7-5-|
E-5-5-----------------6-6-5-5-3-|

time=2:50
e-----------------------------------------|
B-----------------------------------------|
G-----------------------------------------|
D-5-5-----------------8-8-----------------|
A-5-5-7-6-7-6-7-6-6-7-8-8-7-6-7-6-7-6-6-7-|
E-3-3-5-4-5-4-5-4-4-5-6-6-5-4-5-4-5-4-4-5-|

time=2:58
e-------------------------------|
B-------------------------------|
G-------------------------------|
D-7-7-----------------8-8-7-7-5-|
A-7-7-7-6-7-6-7-6-6-7-8-8-7-7-5-|
E-5-5-5-4-5-4-5-4-4-5-6-6-5-5-3-|

time=3:04
e-----------------------------------------|
B-----------------------------------------|
G-----------------------------------------|
D-5-5-----------------8-8-----------------|
A-5-5-7-6-7-6-7-6-6-7-8-8-7-6-7-6-7-6-6-7-|
E-3-3-5-4-5-4-5-4-4-5-6-6-5-4-5-4-5-4-4-5-|

time=3:12
e-------------------------------|
B-------------------------------|
G-------------------------------|
D-7-7-----------------8-8-7-7-5-|
A-7-7-7-6-7-6-7-6-6-7-8-8-7-7-5-|
E-5-5-5-4-5-4-5-4-4-5-6-6-5-5-3-|

time=3:19
e------------------------------------------------------------|
B------------------------------------------------------------|
G------------------------------------------------------------|
D------------------------------------------------------------|
A-5/-7-----7-----7-----7-----7-----7-----7-----7-----7-6-6-7-|
E-3/-5-5-5-5-5-5-5-5-5-5-5-5-5-5-5-5-5-5-5-5-5-5-5-5-5-4-4-5-|

time=3:25
e------------------------------------------------------------|
B------------------------------------------------------------|
G------------------------------------------------------------|
D------------------------------------------------------------|
A-5/-7-----7-----7-----7-----7-----7-----7-----7-----7-6-6-7-|
E-3/-5-5-5-5-5-5-5-5-5-5-5-5-5-5-5-5-5-5-5-5-5-5-5-5-5-4-4-5-|

time:3:32
e-----------------|
B-----------------|
G-----------------|
D-2--4--8-8-7-7-5-|
A-2--4--8-8-7-7-5-|
E-0--2--6-6-5-5-3-|

THE END

It was a bit dificault to write it,but i did it.I hope
you will be satisfied with my tab...Make me comments
and rate me,so I would be able to develop or change
somethings.Thank you...
Sorry that i didnt write the solo(too dificault)
I hope you like my tab....


Song:Unforgiven Blade

Artist:HammerFall

Album:Crimson Thunder

Tabbed by:ELIAS STASI
Tap to rate this tab
# A B C D E F G H I J K L M N O P Q R S T U V W X Y Z