Guitaretab - guitar tabs
Song name
# A B C D E F G H I J K L M N O P Q R S T U V W X Y Z

Hammerfall - Last Man Standing tab

                      PM                                       
      Q      Q.       E   E   E      Q.       Q      Q     E   
D||------------------------------|----------------------------|
A||------------------------------|-----------15~----13----11--|
F||--12~-----L\----------12--14--|--15~-----------------------|
C||------------------12----------|----------------------------|
G||------------------------------|----------------------------|
D||------------------------------|----------------------------|


                   PM                                              
                                                        |---3---|  
   Q      Q.       E   E   E      Q     E   Q     Q     S   S   S  
------------------------------|-----------------------------------|
--13~-----L\------------------|-----------------------------------|
------------------10--12--14--|--15----15--14----15----14h-15p-14-|
------------------------------|-----------------------------------|
------------------------------|-----------------------------------|
------------------------------|-----------------------------------|

[ Tab from: http://www.guitaretab.com/h/hammerfall/192645.html ]
                                        |--3-|      |--3-|     |--3-|          
   Q      Q     E    E   E   E      E   E    S  E   E    S  E  E    S  E   E   
--------------------------------|------------------------------8s--13-17--18--|
-------------------/10--11--13--|--15--10s--15-17--12s--17-18-----------------|
--12~-----L\--------------------|---------------------------------------------|
--------------------------------|---------------------------------------------|
--------------------------------|---------------------------------------------|
--------------------------------|---------------------------------------------|


   Q     Q.      E    E   E      Q     H.             
--20~----L------20b--20--18--|--17\-----------------||
-----------------------------|----------------------||
-----------------------------|----------------------||
-----------------------------|----------------------||
-----------------------------|----------------------||
-----------------------------|----------------------||




Duration Legend
---------------
W - whole
H - half
Q - quarter
E - 8th
S - 16th
T - 32nd
X - 64th
. - note dotted
|-n-|  - n-tuplets


Tablature Legend
----------------
L - tied note
x - dead note
g - grace note
(n) - ghost note
> - accentuded note
NH - natural harmonic
AH - artificial harmonic
TH - tapped harmonic
SH - semi harmonic
PH - pitch harmonic
h - hammer on
p - pull off
b - bend
br - bendRelease
pb - preBend
pbr - preBendRelease
brb - bendReleaseBend
\n/ - tremolo bar dip
\n - tremolo bar dive
-/n - tremolo bar Release up
/n\ - tremolo bar inverted dip
/n - tremolo bar return
-\n - tremolo bar Release down
S - shift slide
s - legato slide
/ -  slide into from below or out of upwards
\ -  slide into from above or out of downwards
~ - vibrato
W - wide vibrato
tr - trill
TP - tremolo picking
T - tapping
S - slap
P - pop
< - fade in
^ - brush up
v - brush down
Related for Last Man Standing tab