Song name
# A B C D E F G H I J K L M N O P Q R S T U V W X Y Z

Hammerfall - Titan tab

Tabbed by : xXEvoulutionXx


Tuning : D

e|-----------------------------------------------------------------|
B|-----------------------------------------------------------------|
G|-----------------------------------------------------------------|
D|-----------------------------------------------------------------|
A|---4--------2--4--------2--4-----2--4--9--7--2-------------------|
E|---2--2--2--0--2--2--2--0--2--2--0--2--7--5--0-------------------|

e|-----------------------------------------------------------------|
B|-----------------------------------------------------------------|
G|-----------------------------------------------------------------|
D|-----------------------------------------------------------------|
A|---4--------2--4--------2--4-----2--4--5-------------------------|
E|---2--2--2--0--2--2--2--0--2--2--0--2--3-------------------------|

e|-----------------------------------------------------------------|
B|-----------------------------------------------------------------|
G|-----------------------------------------------------------------|
D|-----------------------------------------------------------------|
A|---4--------2--4--------2--4-----2--4--9--7--2-------------------|
E|---2--2--2--0--2--2--2--0--2--2--0--2--7--5--0-------------------|

e|-----------------------------------------------------------------|
B|-----------------------------------------------------------------|
G|-----------------------------------------------------------------|
D|-----------------------------------------------------------------|
A|---4--------2--4--------12--10-8---------------------------------|
E|---2--2--2--0--2--2--2--10--8--6---------------------------------|


It took a while to figure this out but it was was not that hard coz it is only at E(6th 
A (5th string)
You hear it pretty well......
Tap to rate this tab
 
# A B C D E F G H I J K L M N O P Q R S T U V W X Y Z