Song name
# A B C D E F G H I J K L M N O P Q R S T U V W X Y Z

Hammerfall - Shadow Empire tab

 
 Speed almost like ``trailblazers`` listen and you will see
 Tuning : D
 Tabbed by : xXEvoulutionXx

 Tell me if you want any tab (only hammerfall)
 Other bands to hard for me , i hear the guitar best on hammerfall songs.

e|-----------------------------------------------------------------------|
B|-----------------------------------------------------------------------|
G|-----------------------------------------------------------------------|
D|---9---------10--------9---------10--------9---------10--9---9---------|
A|---7-7-7-7-7-7-7-7-7-7-7-7-7-7-7-7-7-7-7-7-7-7-7-7-7-7---7---7---------|
E|-----------------------------------------------------------------------|

e|-------------------------------------------------|
B|-------------------------------------------------|
G|-------------------------------------------------|
D|---9-9---10-9----7-7---9--7----------------------|
A|---7-7---7--7----7-7---7--7----------------------|
E|-------------------------------------------------|

e|-----------------------------------------------------------------------|
B|-----------------------------------------------------------------------|
G|-----------------------------------------------------------------------|
D|---9---------10--------9---------10--------9---------10--9---9---------|
A|---7-7-7-7-7-7-7-7-7-7-7-7-7-7-7-7-7-7-7-7-7-7-7-7-7-7---7---7---------|
E|-----------------------------------------------------------------------|

e|-------------------------------------------------|
B|-------------------------------------------------|
G|-------------------------------------------------|
D|---9-9---10-9----7-7---7-------------------------|
A|---7-7---7--7----7-7---5-------------------------|
E|-------------------------------------------------|

e|-----------------------------------------------------------------------|
B|-----------------------------------------------------------------------|
G|-----------------------------------------------------------------------|
D|---9---------10--------9---------10--------9---------10--9---9---------|
A|---7-7-7-7-7-7-7-7-7-7-7-7-7-7-7-7-7-7-7-7-7-7-7-7-7-7---7---7---------|
E|-----------------------------------------------------------------------|

e|-------------------------------------------------|
B|-------------------------------------------------|
G|-------------------------------------------------|
D|---9-9---10-9----7-7---9--7----------------------|
A|---7-7---7--7----7-7---7--7----------------------|
E|-------------------------------------------------|

e|-----------------------------------------------------------------------|
B|-----------------------------------------------------------------------|
G|-----------------------------------------------------------------------|
D|---9---------10--------9---------10--------9---------10--9---9---------|
A|---7-7-7-7-7-7-7-7-7-7-7-7-7-7-7-7-7-7-7-7-7-7-7-7-7-7---7---7---------|
E|-----------------------------------------------------------------------|

e|-------------------------------------------------|
B|-------------------------------------------------|
G|-------------------------------------------------|
D|---9-9---10-9----10-9---10-7-7-------------------|
A|---7-7---7--7----7--7---7--7-7-------------------|
E|-------------------------------------------------|

Tap to rate this tab
# A B C D E F G H I J K L M N O P Q R S T U V W X Y Z