Song name
# A B C D E F G H I J K L M N O P Q R S T U V W X Y Z

Hammerfall - Any Means Necessary tab

Hi!!!This is a second verse for the song
Any Means Necessary by Hammerfall.
The old one version is again made by me.
However this more correct.Check it out:

Song:Any Means Necessary
Artist:Hammerfall
Album:No Sacrifice No Victory
Tuning:Drop Down To eB
Tabbed By:Elias Stasi

Tab Key:
h=hammer-on
p=pull-off
/=slide up
\=slide down
b=bend
r=return bend
()=ghost note
X=dead note
*=palm mute

Intro:


e----------------------------------|
B----------------------------------|
G----------------------------------|
D-\2-2---2-0-2-3-0---2-2---2-0-5-4-|
A-\2-2---2-0-2-3-0---2-2---2-0-5-4-|
E-\2-2---2-0-2-3-0---2-2---2-0-5-4-|x2


Verse:


e--------------------------------------------------|
B--------------------------------------------------|
G--------------------------------------------------|
D--------------------5\-3---------------------5\-3-|
A--------------------5\-3---------------------5\-3-|
E-3--3-3-3--3--3-3-3-3\-1--3--3-3-3--3--3-3-3-3\-1-|


e------------------------------------------|
B------------------------------------------|
G------------------------------------------|
D----------------------------------------7-|
A----------------------------------------7-|
E-4--4-4-4--4--4-4-4--5--5-5-5--5--5-5-5-5-|


e--------------------------------------------------|
B--------------------------------------------------|
G--------------------------------------------------|
D--------------------5\-3---------------------5\-3-|
A--------------------5\-3---------------------5\-3-|
E-3--3-3-3--3--3-3-3-3\-1--3--3-3-3--3--3-3-3-3\-1-|


e------------------------------------------|
B------------------------------------------|
G------------------------------------------|
D----------------------------------------7-|
A----------------------------------------7-|
E-4--4-4-4--4--4-4-4--5--5-5-5--5--5-5-5-5-|


Pre-Chorus:


e-------------------------------------------------------|
B-------------------------------------------------------|
G-------------------------------------------------------|
D-----------------------------------------7--5--7--(7)--|
A-----------------------------------------7--5--7--(7)--|
E-\3--3-3-3--3--3-3-3--4--4-4-4--4--4-4-4-5--3--5--(5)--|


Chorus:


e-----------------------------|
B-----------------------------|
G-----------------------------|
D-\7--7--9--7--9--7--10--7--9-|
A-\7--7--9--7--9--7--10--7--9-|
E-\5--5--7--5--7--7---8--5--7-|


After Chorus:


e----------------------------------------------------|
B----------------------------------------------------|
G----------------------------------------------------|
D----------------------------------------------------|
A-----------------------------------------------3/-4-|
E--2--2-2-2--2-2-2--2-2-2--2-2-2--2-2-2--2-2-2--3/-4-|


Verse:


Verse:


e--------------------------------------------------|
B--------------------------------------------------|
G--------------------------------------------------|
D--------------------5\-3---------------------5\-3-|
A--------------------5\-3---------------------5\-3-|
E-3--3-3-3--3--3-3-3-3\-1--3--3-3-3--3--3-3-3-3\-1-|


e------------------------------------------|
B------------------------------------------|
G------------------------------------------|
D----------------------------------------7-|
A----------------------------------------7-|
E-4--4-4-4--4--4-4-4--5--5-5-5--5--5-5-5-5-|


e--------------------------------------------------|
B--------------------------------------------------|
G--------------------------------------------------|
D--------------------5\-3---------------------5\-3-|
A--------------------5\-3---------------------5\-3-|
E-3--3-3-3--3--3-3-3-3\-1--3--3-3-3--3--3-3-3-3\-1-|


e------------------------------------------|
B------------------------------------------|
G------------------------------------------|
D----------------------------------------7-|
A----------------------------------------7-|
E-4--4-4-4--4--4-4-4--5--5-5-5--5--5-5-5-5-|


Pre-Chorus:


e-------------------------------------------------------|
B-------------------------------------------------------|
G-------------------------------------------------------|
D-----------------------------------------7--5--7--(7)--|
A-----------------------------------------7--5--7--(7)--|
E-\3--3-3-3--3--3-3-3--4--4-4-4--4--4-4-4-5--3--5--(5)--|


Chorus:


e-----------------------------|
B-----------------------------|
G-----------------------------|
D-\7--7--9--7--9--7--10--7--9-|
A-\7--7--9--7--9--7--10--7--9-|
E-\5--5--7--5--7--7---8--5--7-|


The part:I am born to kill judge...goes like this:


e-----------------------------|
B-----------------------------|
G-----------------------------|
D-\7--7--9--7--9--7--10--7--9-|
A-\7--7--9--7--9--7--10--7--9-|
E-\5--5--7--5--7--7---8--5--7-|

After Chorus:

e-----------------------|
B-----------------------|
G-----------------------|
D--------------------7b-|
A--------------------7b-|
E-(4)-5-5-5--5-5-5-5----|x4


Bridge:

1st guitar:

e-12-13-15-13-12---15-13-12-|
B---------------13b---------|
G---------------------------|
D---------------------------|
A---------------------------|
E---------------------------|x4

2nd guitar:

e-----------------------|
B-----------------------|
G-----------------------|
D--------------------7b-|
A--------------------7b-|
E-(4)-5-5-5--5-5-5-5----|x4

Solo:


e--------------------------------------------------|
B-12b-11-9b--9-11-12b-11-9b--12-14-15b-13-12-11-10-|
G--------------------------------------------------|
D--------------------------------------------------|
A--------------------------------------------------|
E--------------------------------------------------|


e------------------------------------------------------------|
B-12b-12b-10--10-12-12b-12b-10--11-12-14b-12-11-13b-11-10-10-|
G------------------------------------------------------------|
D------------------------------------------------------------|
A------------------------------------------------------------|
E------------------------------------------------------------|


e-12-13-15-13-12---15-13-12-|
B---------------13b---------|
G---------------------------|
D---------------------------|
A---------------------------|
E---------------------------|x2


e--------------------------------------------------------------|
B-15-13-12--15-13-12--15-13-12--17-15-14--17-15-14--17-15-14---|
G---------15--------15--------15--------17--------17--------17-|
D--------------------------------------------------------------|
A--------------------------------------------------------------|
E--------------------------------------------------------------|


e-9b----7/-9*----12b--|
B---------------------|
G---------------------|
D---------------------|
A---------------------|
E---------------------|

Chorus:

e-----------------------------|
B-----------------------------|
G-----------------------------|
D-\7--7--9--7--9--7--10--7--9-|
A-\7--7--9--7--9--7--10--7--9-|
E-\5--5--7--5--7--7---8--5--7-|


The part:I am born to kill judge...goes like this:


e-----------------------------|
B-----------------------------|
G-----------------------------|
D-\7--7--9--7--9--7--10--7--9-|
A-\7--7--9--7--9--7--10--7--9-|
E-\5--5--7--5--7--7---8--5--7-|


at the second times the part:I am born to kill judge...
goes like this:

1st guitar:


e-12-13-15-13-12---15-13-12-|
B---------------13b---------|
G---------------------------|
D---------------------------|
A---------------------------|
E---------------------------|x4


2nd guitar:

e-----------------------|
B-----------------------|
G-----------------------|
D--------------------7b-|
A--------------------7b-|
E-(4)-5-5-5--5-5-5-5----|x4


Ending:

e---------|
B---------|
G---------|
D-5--4--2-|
A-5--4--2-|
E-3--2--0-|let the notes to play


                   THE            END!!!!!!!

Thank you for reading my tab
Tap to rate this tab
# A B C D E F G H I J K L M N O P Q R S T U V W X Y Z