Song name
# A B C D E F G H I J K L M N O P Q R S T U V W X Y Z

Hammerfall - One Of A Kind tab

This is the right Intro.


E ----------------------------------------------------|
B ----------------------------------------------------|
G ----------------------------------------------------|
D ---------5-----------------------5--------8-7-------|
A ------------6-8--5-6--3-------------6-8--------8----|
E -3-3-3-3-----------------3-3-3-3--------------------|


E ------------------------------------------------------------|
B ------------------------------------------------------------|
G ---------------------------------------------------------5--|
D ---------5-----------------------------8--7-7-7-----7-8-----|
A ------------6-8--5-6--3------------3-------------8----------|
E -3-3-3-3------------------3-3-3-3--1------------------------|
Tap to rate this tab
# A B C D E F G H I J K L M N O P Q R S T U V W X Y Z