Song name
# A B C D E F G H I J K L M N O P Q R S T U V W X Y Z

Hammerfall - Trailblazers Part 2 tab

Tabbed by : xXEvoulutionXx


e|---------------13------------------------------------------|
B|---13------------------------------------------------------|
G|---------------7-----------12------------------------------|
D|---7-------------------------------------------------------|
A|-------------------------------------0---------------------|
E|-----------------------------------------------------------|

e|-----------------------------------------------------------|
B|---15--------------13--------------------------------------|
G|-----------14--12------14--13--14--12--14--12--------------|
D|-----------------------------------------------15----------|
A|-----------------------------------------------------------|
E|-----------------------------------------------------------|

e|-----------------------------------------------------------|
B|-----------------------------------------------------------|
G|---14--12------12------------------------------------------|
D|-----------15------15--12--15--12--12----------------------|
A|-----------------------------------------------------------|
E|-----------------------------------------------------------|

e|------------------------------------------------------------------|
B|------------------------------------------15-------12--13----13-12|
G|-------------------------14------------14-------15----------------|
D|---10--12--15----12--15---------12--15-------14-------------------|
A|------------------------------------------------------------------|
E|------------------------------------------------------------------|
                                              XXXXXXXXXXXXXXXXX
e|-----------------------------------------------------------|X
B|---6------15-15-15-15-13-13-13-13-11-11-11-11-10-10-10-10--|X
G|---7-------------------------------------------------------|X
D|-----------------------------------------------------------|X
A|-----------------------------------------------------------|X
E|-----------------------------------------------------------|X
                                                              X
e|-----------------------------------------------------------|
B|---8------13-13-13-13-12-12-12-12-10-10-10-10-8-8-8-8--13--|
G|---9---------------------------------------------------10--|
D|-----------------------------------------------------------|
A|-----------------------------------------------------------|
E|-----------------------------------------------------------|

  Repeat from the XXXX
 
e|-----------------------------------------------------------|
B|-----------------------------------------------------------|
G|-----------------------------------------------------------|
D|------2--------3----5----7------7--7--7--7--7--7--7--------|
A|---2--0-----5--1----3----5------5--5--5--5--5--5--5--------|
E|---0--------3----------------------------------------------|

e|-----------------------------------------------------------|
B|-----------------------------------------------------------|
G|-----------------------------------------------------------|
D|---14---16--16s17--14--12-----14--16--17-------------------|
A|-----------------------------------------------------------|
E|-----------------------------------------------------------|

e|-----------------------------------------------------------|
B|-----------------------------------------------------------|
G|---12---14--14-15--12--11-----11--12--14-------------------|
D|---14---16--16s17--14--12-----12--14--16-------------------|
A|-----------------------------------------------------------|
E|-----------------------------------------------------------|

e|-----------------------------------------------------------|
B|-----------------------------------------------------------|
G|---16---17--17s18--16--14-----16--14--14-------------------|
D|---17---19--19s20--17--16-----17--16--16-------------------|
A|-----------------------------------------------------------|
E|-----------------------------------------------------------|

e|-----------------------------------------------------------|
B|-------------13s14--10--12---------------------------------|
G|---16----17--14s15--11--12--12-----------------------------|
D|---17----19-----------------14-----------------------------|
A|-----------------------------------------------------------|
E|-----------------------------------------------------------|

e|--------------------------12-------------------------------|
B|---------12--8-------12---12--15---------------------------|
G|---9-----12--9-------12-------14---------------------------|
D|-----------------------------------------------------------|
A|-----------------------------------------------------------|
E|-----------------------------------------------------------|

e|---7------7------------------------------------------------|
B|---8------8--12----12--10---10----10-10-8------------------|
G|-------------11----11--8----8-----8--8--9------------------|
D|-----------------------------------------------------------|
A|-----------------------------------------------------------|
E|-----------------------------------------------------------|

e|--------------------------12-------------------------------|
B|---------12--8-------12---12--15---------------------------|
G|---9-----12--9-------12-------14---------------------------|
D|-----------------------------------------------------------|
A|-----------------------------------------------------------|
E|-----------------------------------------------------------|

e|---7------7------------------------------------------------|
B|---8------8--12----12--10---10----10-10-8------------------|
G|-------------11----11--8----8-----8--8--9------------------|
D|-----------------------------------------------------------|
A|-----------------------------------------------------------|
E|-----------------------------------------------------------|
                                               XXXXXXXXXXXXXXXX
e|-----------------------------------------------------------|X
B|---------------------------------------5-4-2-0-------------|X
G|-----------------------------------------------------------|X
D|-----------------------------------------------------------|X
A|-----------------------------------------------------------|X
E|---0--0--0--0--0--0--0--0--0--0--0--0----------------------|X

e|-----------------------------------------------------------|
B|-----------------------------------------------------------|
G|----------------------------5--4--2--4---------------------|
D|-----------------------------------------------------------|
A|-----------------------------------------------------------|
E|---0--0--0--0--0--0--0--0----------------------------------|

e|-----------------------------------------------------------|
B|---------------------------------------5-4-2-0-------------|
G|-----------------------------------------------------------|
D|-----------------------------------------------------------|
A|-----------------------------------------------------------|
E|---0--0--0--0--0--0--0--0--0--0--0--0----------------------|

e|-----------------------------------------------------------|
B|-----------------------------------------------------------|
G|------------------------------(2)--------------------------|
D|---2--0--2--4--5--4--2--5--4------(5)---(4)----------------|
A|-----------------------------------------------------------|
E|-----------------------------------------------------------|

  Repeat from the XXXX , The numbers in ( ) only plays the fisrt time

e|-----------------------------------------------------------|
B|-----------------------------------------------------------|
G|-----------------------------------------------------------|
D|---7-----5-------------------------------------------------|
A|-----------------------------------------------------------|
E|-----------------------------------------------------------|


If Anyone wishes a tab tell me , good luck playing
Tap to rate this tab
# A B C D E F G H I J K L M N O P Q R S T U V W X Y Z