Song name
# A B C D E F G H I J K L M N O P Q R S T U V W X Y Z

Hammerfall - Trailblazers tab

 Tabbed by : xXEvoulutionXx
 

  This is the easiest and best way to play this song, enojy.
  I only got the first guitar here.

  
e|--------------------------------------------------------------------|
B|--------------------------------------------------------------------|
G|------------------------2------4-----5--4--2--4---------------------|
D|---2--2--2--2--5--2--2----2--2--------------------------------------|
A|--------------------------------------------------------------------|
E|--------------------------------------------------------------------|

e|--------------------------------------------------------------------|
B|--------------------------------------------------------------------|
G|---------------------------5--4--2--4-------------------------------|
D|---2--2--2--2--5--2--2--2-------------------------------------------|
A|--------------------------------------------------------------------|
E|--------------------------------------------------------------------|

e|--------------------------------------------------------------------|
B|--------------------------------------------------------------------|
G|------------------------2------4-----5--4--2--4---------------------|
D|---2--2--2--2--5--2--2----2--2--------------------------------------|
A|--------------------------------------------------------------------|
E|--------------------------------------------------------------------|

e|--------------------------------------------------------------------|
B|--------------------------------------------------------------------|
G|-------------------------------2------------------------------------|
D|---2--0--2--4--5--4--2--5--4-------5---4----------------------------|
A|--------------------------------------------------------------------|
E|--------------------------------------------------------------------|

e|--------------------------------------------------------------------|
B|--------------------------------------------------------------------|
G|------------------------2------4-----5--4--2--4---------------------|
D|---2--2--2--2--5--2--2----2--2--------------------------------------|
A|--------------------------------------------------------------------|
E|--------------------------------------------------------------------|

e|--------------------------------------------------------------------|
B|--------------------------------------------------------------------|
G|---------------------------5--4--2--4-------------------------------|
D|---2--2--2--2--5--2--2--2-------------------------------------------|
A|--------------------------------------------------------------------|
E|--------------------------------------------------------------------|

e|--------------------------------------------------------------------|
B|--------------------------------------------------------------------|
G|------------------------2------4-----5--4--2--4---------------------|
D|---2--2--2--2--5--2--2----2--2--------------------------------------|
A|--------------------------------------------------------------------|
E|--------------------------------------------------------------------|

e|--------------------------------------------------------------------|
B|--------------------------------------------------------------------|
G|--------------------------------------------------------------------|
D|---2--0--2--4--5--4--2--5--4----------------------------------------|
A|--------------------------------------------------------------------|
E|--------------------------------------------------------------------|
XXXXXXXXXXXXXXXXXXXXXXXXXXXXXXXXXXXXXXXXXXXXXXXXXXXXXXXXXXXXXXXXXXXXXXXX
e|--------------------------------------------------------------------|X
B|--------------------------------------------------------------------|X
G|------------------------------------------5---4---2---0-------------|X
D|--------------------------------------------------------------------|X
A|--------------------------------------------------------------------|X
E|---0--0--0--0--0--0--0--0--0--0--0--0-------------------------------|X
                                                                       X
e|--------------------------------------------------------------------|X
B|--------------------------------------------------------------------|
G|-----------------------------5---4---2---4--------------------------|
D|--------------------------------------------------------------------|
A|--------------------------------------------------------------------|
E|---0--0--0--0--0--0--0--0-------------------------------------------|

e|--------------------------------------------------------------------|
B|--------------------------------------------------------------------|
G|------------------------------------------5---4---2---0-------------|
D|--------------------------------------------------------------------|
A|--------------------------------------------------------------------|
E|---0--0--0--0--0--0--0--0--0--0--0--0-------------------------------|

e|--------------------------------------------------------------------|
B|--------------------------------------------------------------------|
G|-------------------------------2------------------------------------|
D|---2--0--2--4--5--4--2--5--4-------5---4----------------------------|
A|--------------------------------------------------------------------|
E|--------------------------------------------------------------------|

  Now repeat from the XXXX  (check up)

e|--------------------------------------------------------------------|
B|--------------------------------------------------------------------|
G|--------------------------------------------------------------------|
D|---------------------------5-----------------7----------------------|
A|---2-----5-----------------3-----3--3--3--3--5----------------------|
E|---0-----3-----3--3--3--3-------------------------------------------|

e|--------------------------------------------------------------------|
B|--------------------------------------------------------------------|
G|--------------------------------------------------------------------|
D|-----------------------------------------------5--------------------|
A|---5---5---2-----------------5-----------------3--------------------|
E|---3---2---0-----0--0--0--0--3-----3--3--3--3-----------------------|

e|--------------------------------------------------------------------|
B|--------------------------------------------------------------------|
G|--------------------------------------------------------------------|
D|--------------------------------------------------------------------|
A|---2--2--3--3--5--5--3--3--2--2--------------------2----------------|
E|---------------------------------5--5--3--3--2--2--0----------------|

e|--------------------------------------------------------------------|
B|--------------------------------------------------------------------|
G|--------------------------------------------------------------------|
D|---------------------5-----------------7----------------------------|
A|---5-----------------3-----3--3--3--3--5----------------------------|
E|---3-----3--3--3--3-------------------------------------------------|

e|--------------------------------------------------------------------|
B|--------------------------------------------------------------------|
G|-----------------------------------4--------------------------------|
D|-----------------5---------1---4------------------------------------|
A|---5---5---2-----3-----2--------------------------------------------|
E|---3---2---0--------------------------------------------------------|

e|--------------------------------------------------------------------|
B|--------------------------------------------------------------------|
G|--------------------------------------------------------------------|
D|--------------------------------------------------------------------|
A|---3--3--3--3--3--3--3--3--3--3--3--3--3--3--3--3-------------------|
E|--------------------------------------------------------------------|

e|--------------------------------------------------------------------|
B|--------------------------------------------------------------------|
G|--------------------------------------------------------------------|
D|--------------------------------------------------------------------|
A|---0--0--0--0--0--0--0--0--0--0--0--0--0--0--0--0-------------------|
E|--------------------------------------------------------------------|

e|--------------------------------------------------------------------|
B|--------------------------------------------------------------------|
G|--------------------------------------------------------------------|
D|--------------------------------------------------------------------|
A|---------------------------2--2--2--2--2--2--2--2-------------------|
E|---3--3--3--3--3--3--3--3-------------------------------------------|

e|-----------------------------------------------------------------------|
B|-----------------------------------------------------------------------|
G|---------------------7-------------------------------------------------|
D|---7--7--7--7--7--7--7----9-------------------------------------------5|
A|---5--5--5--5--5--5--5----7-------------------------------------------3|
E|--------------------------0----0--0--0----0--0--0----0--0--0----0--0---|

e|--------------------------------------------------------------------|
B|--------------------------------------------------------------------|
G|--------------------------------------------------------------------|
D|---2-------------------------------------------7--------------------|
A|---2-------------------------------------------5--------------------|
E|---0---0--0--0----0--0--0----0--0--0----0--0------------------------|

e|--------------------------------------------------------------------|
B|--------------------------------------------------------------------|
G|--------------------------------------------------------------------|
D|--------------------------------------------------------------------|
A|--------------------------------------------------------------------|
E|---3----3--3--3----3--3--3----3--3--3----3--3-----------------------|

e|--------------------------------------------------------------------|
B|--------------------------------------------------------------------|
G|------------------------------------------------4----8--11-9--------|
D|------------------------------------------------4----9--9--9--------|
A|---2----2--2--2----2--2--2----2--2--2----2--2---2----6--6--7--------|
E|--------------------------------------------------------------------|

e|--------------------------------------------------------------------|
B|--------------------------------------------------------------------|
G|--------------------------------------------------------------------|
D|--------------------------------------------------------------------|
A|------------------------------------------2-------------------------|
E|---0--0--0----0--0--0----0--0--0----0--0--0-------------------------|

e|--------------------------------------------------------------------|
B|--------------------------------------------------------------------|
G|--------------------------------------------------------------------|
D|---------------------5-----------------7----------------------------|
A|---5-----------------3-----3--3--3--3--5----------------------------|
E|---3-----3--3--3--3-------------------------------------------------|

e|--------------------------------------------------------------------|
B|--------------------------------------------------------------------|
G|--------------------------------------------------------------------|
D|-----------------------------------------------5--------------------|
A|---5---5---2-----------------5-----------------3--------------------|
E|---3---2---0-----0--0--0--0--3-----3--3--3--3-----------------------|

e|--------------------------------------------------------------------|
B|--------------------------------------------------------------------|
G|--------------------------------------------------------------------|
D|--------------------------------------------------------------------|
A|---2--2--3--3--5--5--3--3--2--2--------------------2----------------|
E|---------------------------------5--5--3--3--2--2--0----------------|

e|--------------------------------------------------------------------|
B|--------------------------------------------------------------------|
G|--------------------------------------------------------------------|
D|---------------------5-----------------7----------------------------|
A|---5-----------------3-----3--3--3--3--5----------------------------|
E|---3-----3--3--3--3-------------------------------------------------|

e|--------------------------------------------------------------------|
B|--------------------------------------------------------------------|
G|-----------------------------------4--------------------------------|
D|-----------------5---------1---4------------------------------------|
A|---5---5---2-----3-----2--------------------------------------------|
E|---3---2---0--------------------------------------------------------|

e|--------------------------------------------------------------------|
B|--------------------------------------------------------------------|
G|--------------------------------------------------------------------|
D|--------------------------------------------------------------------|
A|---3--3--3--3--3--3--3--3--3--3--3--3--3--3--3--3-------------------|
E|--------------------------------------------------------------------|

e|--------------------------------------------------------------------|
B|--------------------------------------------------------------------|
G|--------------------------------------------------------------------|
D|--------------------------------------------------------------------|
A|---0--0--0--0--0--0--0--0--0--0--0--0--0--0--0--0-------------------|
E|--------------------------------------------------------------------|

e|--------------------------------------------------------------------|
B|--------------------------------------------------------------------|
G|--------------------------------------------------------------------|
D|--------------------------------------------------------------------|
A|---------------------------2--2--2--2--2--2--2--2-------------------|
E|---3--3--3--3--3--3--3--3-------------------------------------------|

e|-----------------------------------------------------------------------|
B|-----------------------------------------------------------------------|
G|---------------------7-------------------------------------------------|
D|---7--7--7--7--7--7--7----9-------------------------------------------5|
A|---5--5--5--5--5--5--5----7-------------------------------------------3|
E|--------------------------0----0--0--0----0--0--0----0--0--0----0--0---|

e|--------------------------------------------------------------------|
B|--------------------------------------------------------------------|
G|--------------------------------------------------------------------|
D|---9-------------------------------------------7--------------------|
A|---7-------------------------------------------5--------------------|
E|---0---0--0--0----0--0--0----0--0--0----0--0------------------------|

e|--------------------------------------------------------------------|
B|--------------------------------------------------------------------|
G|--------------------------------------------------------------------|
D|--------------------------------------------------------------------|
A|--------------------------------------------------------------------|
E|---3----3--3--3----3--3--3----3--3--3----3--3-----------------------|

e|--------------------------------------------------------------------|
B|--------------------------------------------------------------------|
G|------------------------------------------------4----8--11----------|
D|------------------------------------------------4----9--9-----------|
A|---2----2--2--2----2--2--2----2--2--2----2--2---2----6--6-----------|
E|--------------------------------------------------------------------|

e|--------------------------------------------------------------------|
B|--------------------------------------------------------------------|
G|--------------------------------------------------------------------|
D|----------------------------------------7---9-----------------------|
A|----------------------------------------5---7-----------------------|
E|---0----0--0--0----0--0--0----0--0--0-------0-----------------------|

e|--------------------------------------------------------------------|
B|--------------------------------------------------------------------|
G|--------------------------------------------------------------------|
D|-------------------------------------------5------------------------|
A|-------------------------------------------3------------------------|
E|---0--0--0----0--0--0----0--0--0----0--0----------------------------|

e|--------------------------------------------------------------------|
B|--------------------------------------------------------------------|
G|--------------------------------------------------------------------|
D|---9-------------------------------------------7--------------------|
A|---7-------------------------------------------5--------------------|
E|---0---0--0--0----0--0--0----0--0--0----0--0------------------------|

e|--------------------------------------------------------------------|
B|--------------------------------------------------------------------|
G|--------------------------------------------------------------------|
D|--------------------------------------------------------------------|
A|--------------------------------------------------------------------|
E|---3----3--3--3----3--3--3----3--3--3----3--3-----------------------|

e|--------------------------------------------------------------------|
B|--------------------------------------------------------------------|
G|------------------------------------------------4----8--11-9--------|
D|------------------------------------------------4----9--9--9--------|
A|---2----2--2--2----2--2--2----2--2--2----2--2---2----6--6--7--------|
E|--------------------------------------------------------------------|

  The solo is in part 2 , it will be epic ;)


Tap to rate this tab
# A B C D E F G H I J K L M N O P Q R S T U V W X Y Z