Song name
# A B C D E F G H I J K L M N O P Q R S T U V W X Y Z

Hammerfall - Nr Vindarna Viskar Mitt Namn tab

-------------------------------------------------------------------------------
	        När Vindarna Viskar Mitt Namn - Hammerfall
-------------------------------------------------------------------------------

Tabbed by: Bonnene
Email: xivetvc@hotmail.com

Tuning: Standard


Intro rhytm:

e|---------------------------------------------------------------------------|
B|---------------------------------------------------------------------------|
G|---------------------------------------------------------------------------|
D|6-6--6-6--6-6--6------6------6------6--2--4------6------6------6--2--4-----|
A|6-6--6-6--6-6--6------6------6------6--2--4------6------6------6--2--4-----|
E|4-4--4-4--4-4--4--4-4-4--4-4-4--4-4-4--0--2--4-4-4--4-4-4--4-4-4--0--2-----|

Intro Solo:

e|-14h16--14h16-14----------14-16--22b~-12-10-9-10-9----9--------------------|
B|-----------------16-14-16--------------------------12---10-12-10-9---------|
G|---------------------------------------------------------------------------|
D|---------------------------------------------------------------------------|
A|---------------------------------------------------------------------------|
E|---------------------------------------------------------------------------|

Verse:

e|---------------------9-----------------------------------------------------|
B|---12-11-9-11--11-12---12--------------------------------------------------|
G|---------------------------------------------------------------------------|
D|---------------------------------------------------------------------------|
A|---------------------------------------------------------------------------|
E|---------------------------------------------------------------------------|

Pre-chorus:

e|---------------------------------------------------------------------------|
B|---------------------------------------------------------------------------|
G|--------4--6-------------4-4-4-4-4-4-4-------------------------------------|
D|--2--4--4--6--6----2--4--4-4-4-4-4-4-4-------------------------------------|
A|--2--4--2--4--6----2--4--2-2-2-2-2-2-2-------------------------------------|
E|--0--2--------4----0--2----------------------------------------------------|

Chorus:

e|---------------------------------------------------------------------------|
B|---------------------------------------------------------------------------|
G|---------------------------------------------------------------------------|
D|------6------6------4------4------2------2------4------4------6------6-----|
A|------6------6------4------4------2------2------4------4------6------6-----|
E|--4-4-4--4-4-4--2-2-2--2-2-2--0-0-0--0-0-0--2-2-2--2-2-2--4-4-4--4-4-4-----|
pm| . .    . .    . .    . .    . .    . .    . .    . .    . .    . . 

e|---------------------------------------------------------------------------|
B|---------------------------------------------------------------------------|
G|---------------------------------------------------------------------------|
D|------4------4--2--4------6------6------6--2--4------6------6------6--2--4-|
A|------4------4--2--4------6------6------6--2--4------6------6------6--2--4-|
E|--2-2-2--2-2-2--0--2--4-4-4--4-4-4--4-4-4--0--2--4-4-4--4-4-4--4-4-4--0--2-|
pm| . .    . .          . .    . .    . .          . .    . .    . .

Chorus end/pre verse:

e|--12-10-9-10-9----9--------------------------------------------------------|
B|---------------12---10-12-10-9---------------------------------------------|
G|---------------------------------------------------------------------------|
D|---------------------------------------------------------------------------|
A|---------------------------------------------------------------------------|
E|---------------------------------------------------------------------------|

Bridge:

e|---------------------------------------------------------------------------|
B|---------------------------------------------------------------------------|
G|--8--6-----6---------------------------------------------------------------|
D|--------9-----9--8---/5b---/12b---/18b-------------------------------------|
A|---------------------------------------------------------------------------|
E|---------------------------------------------------------------------------|

Solo:

e|-----------------------18-------21-19-18-19--------------------------------|
B|--------------19-18-------21-19--------------9-12-11-12--11h12--10h11--8h9-|
G|-----20-19-17-------20-----------------------------------------------------|
D|--18-----------------------------------------------------------------------|
A|---------------------------------------------------------------------------|
E|---------------------------------------------------------------------------|

End chorus:

e|---------------------------------------------------------------------------|
B|---------------------------------------------------------------------------|
G|---------------------------------------------------------------------------|
D|------8------8------6------6------4------4------6------6------8------8-----|
A|------8------8------6------6------4------4------6------6------8------8-----|
E|--6-6-6--6-6-6--4-4-4--4-4-4--2-2-2--2-2-2--4-4-4--4-4-4--6-6-6--6-6-6-----|
pm| . .    . .    . .    . .    . .    . .    . .    . .    . .    . . 

e|---------------------------------------------------------------------------|
B|---------------------------------------------------------------------------|
G|---------------------------------------------------------------------------|
D|------6------6--4--6------8------8------8--4--6------8------8------8--4--6-|
A|------6------6--4--6------8------8------8--4--6------8------8------8--4--6-|
E|--4-4-4--4-4-4--2--4--6-6-6--6-6-6--6-6-6--2--4--6-6-6--6-6-6--6-6-6--2--4-|
pm| . .    . .          . .    . .    . .          . .    . .    . . 

End solo:

e|---------------------------------|
B|--9-7----7-----------------------|
G|------10---10-8-10-8----8--------| - x3
D|---------------------11---11-10--|
A|---------------------------------|
E|---------------------------------|

e|---------------------------------------------------------------------------|
B|---------------------------------------------------------------------------|
G|--/15--13------------------------------------------------------------------|
D|-----------4--4-4-4-4--4-4-4-4---------------------------------------------|
A|-----------4--4-4-4-4--4-4-4-4---------------------------------------------|
E|-----------6--6-6-6-6--6-6-6-6---------------------------------------------|


************************************

| /   slide up
| \   slide down
| h   hammer-on
| p   pull-off
| ~   vibrato
| +   harmonic
| x   Mute note
| b   Bend
| pb  Pre-bend
| br  Bend release
| pbr Pre-bend release
| brb Bend release bend

************************************
Tap to rate this tab
# A B C D E F G H I J K L M N O P Q R S T U V W X Y Z