Song name
# A B C D E F G H I J K L M N O P Q R S T U V W X Y Z

Hammerfall - Bring The Hammer Down tab

PM all open E's

E||-------------------------|
B||-------------------------|
G||*------------------------|
D||*--------7----9----------|
A||---------5----7----------|
E||---0--0--5----7----0--0--|

------------------------|
------------------------|
------------------------|
--7----9----------------|
--5----7----------------|
--5----7----0--0--0--0--|

------------------------|
------------------------|
------------------------|
--------7----9----------|
--------5----7----------|
--0--0--5----7----0--0--|

---------------------|
---------------------|
---------------------|
--7----9----5--------|
--5----7----5--------|
--5----7----3--------|

------------------------|
------------------------|
------------------------|
--------7----9----------|
--------5----7----------|
--0--0--5----7----0--0--|

------------------------|
------------------------|
------------------------|
--7----9----------------|
--5----7----------------|
--5----7----0--0--0--0--|
       
----------------------||-------------------|
----------------------||-------------------|
---------------------*||--4----------------|
--5--------7----7----*||--4----------------|
--5--------7----5-----||--2----------------|
--3--------5----5-----||-------------------|

------------------------|-------||
------------------------|-------||
--4---------------------|-------||
--4-----------5----7----|--2----||
--2-----------5----5----|--2----||
--------------3----5----|--0----||
Tap to rate this tab
 
# A B C D E F G H I J K L M N O P Q R S T U V W X Y Z