Song name
# A B C D E F G H I J K L M N O P Q R S T U V W X Y Z

Hammerfall - Hammerfall tab

#----------------------------------PLEASE NOTE---------------------------------#
#This file is the author's own work and represents their interpretation of the #
#song. You may only use this file for private study, scholarship, or research. #
#------------------------------------------------------------------------------#

HAMMERFALL
As recorded by HammerFall
(From the 1996 Album GLORYTO THE BRAVE )


Transcribed by Ivan - (peekaboo104@hotmail.com) (Invisible God)

 Words and Music by HammerFall

 

Gtr I (Eb Ab Db Gb Bb Eb) - 'Untitled'
Gtr II (Eb Ab Db Gb Bb Eb) - 'Untitled'
Gtr III (Eb Ab Db Gb Bb Eb) - 'Untitled'


 Intro
  Fast Rock Q=135
  E5   D5       G5                                                        F5/C
 4/4
  Gtr I
                PM-----------------------------------------------------------------
  H    H        S S S S S S S S S S S S S S S S   S S S S S S S S S S S S S S S S
|-----------||----------------------------------|---------------------------------|
|-----------||o---------------------------------|---------------------------------|
|-----------||----------------------------------|-----------------7-7-7-7---------|
|-9----7----||--5-5-5-5-5-5-5-5-8-8-8-8-5-5-5-5-|-5-5-5-5-5-5-5-5---------8-8-8-8-|
|-7----5----||o---------------------------------|---------------------------------|
|-----------||----------------------------------|---------------------------------|
|
| Gtr II
|                   PM------------------------|       PM--------|
| H    H        E   S S S S S S S S S S S S S S   E   S S S S S S Q       Q
|-----------||----------------------------------|---------------------------------|
|-----------||o---------------------------------|---------------------------------|
|-----------||----------------------------------|---------------------------------|
|-9----7----||----------------------------------|-------------------------3-------|
|-7----5----||o-5-------------------------------|-5---------------5-------3-------|
|-----------||--3---3-3-3-3-3-3-3-3-3-3-3-3-3-3-|-3---3-3-3-3-3-3-3---------------|


  D5                                                        Bb5/F
 -----------------------------------------------------------------|
  S S S S S S S S S S S S S S S S   S S S S S S S S S S S S S S S S
|---------------------------------|-----------------------------------||
|---------------------------------|----------------------------------o||
|---------------------------------|-----------------------------------||
|---------------------------------|-----------------7-7-7-7-----------||
|-5-5-5-5-5-5-5-5-8-8-8-8-5-5-5-5-|-5-5-5-5-5-5-5-5---------8-8-8-8--o||
|---------------------------------|-----------------------------------||
|
|     PM------------------------|       PM--------|
| E   S S S S S S S S S S S S S S   E   S S S S S S Q       Q
|---------------------------------|-----------------------------------||
|---------------------------------|----------------------------------o||
|---------------------------------|-----------------------------------||
|-7-------------------------------|-7---------------7-------8---------||
|-5---5-5-5-5-5-5-5-5-5-5-5-5-5-5-|-5---5-5-5-5-5-5-5-------8--------o||
|---------------------------------|-----------------------------------||


 1st Verse
  A5                                                  G5
    PM----------------------------------------------|
  E S S S S S S S S S S S S S S   S S S S S S S S S S Q  E
|-------------------------------|--------------------------|
|-------------------------------|--------------------------|
|-------------------------------|--------------------------|
|-------------------------------|--------------------------|
|-7-----------------------------|---------------------5--5-|
|-5-5-5-5-5-5-5-5-5-5-5-5-5-5-5-|-5-5-5-5-5-5-5-5-5-5-3--3-|
|
| E E   Q       H                 H               E   Q  E
|-------------------------------|--------------------------|
|-------------------------------|--------------------------|
|-------------------------------|--------------------------|
|-------------------------------|--------------------------|
|-7-----------------------------|---------------------5--5-|
|-5-----------------------------|---------------------3--3-|


  A5                                                  F5
    PM----------------------------------------------|
  E S S S S S S S S S S S S S S   S S S S S S S S S S Q  E
|-------------------------------|--------------------------|
|-------------------------------|--------------------------|
|-------------------------------|--------------------------|
|-------------------------------|--------------------------|
|-7-----------------------------|---------------------3--3-|
|-5-5-5-5-5-5-5-5-5-5-5-5-5-5-5-|-5-5-5-5-5-5-5-5-5-5-1--1-|
|
| E E   Q       H                 H               E   Q  E
|-------------------------------|--------------------------|
|-------------------------------|--------------------------|
|-------------------------------|--------------------------|
|-------------------------------|--------------------------|
|-7-----------------------------|---------------------3--3-|
|-5-----------------------------|---------------------1--1-|


  G5                                                  F5
    PM----------------------------------------------|
  E S S S S S S S S S S S S S S   S S S S S S S S S S Q  E
|-------------------------------|--------------------------|
|-------------------------------|--------------------------|
|-------------------------------|--------------------------|
|-------------------------------|--------------------------|
|-5-----------------------------|---------------------3--3-|
|-3-3-3-3-3-3-3-3-3-3-3-3-3-3-3-|-3-3-3-3-3-3-3-3-3-3-1--1-|
|
| E E   Q       H                 H               E   Q  E
|-------------------------------|--------------------------|
|-------------------------------|--------------------------|
|-------------------------------|--------------------------|
|-------------------------------|--------------------------|
|-5-----------------------------|---------------------3--3-|
|-3-----------------------------|---------------------1--1-|


  A5                                                  G5
    PM----------------------------------------------|
  E S S S S S S S S S S S S S S   S S S S S S S S S S Q  E
|-------------------------------|--------------------------|
|-------------------------------|--------------------------|
|-------------------------------|--------------------------|
|-------------------------------|--------------------------|
|-7-----------------------------|---------------------5--5-|
|-5-5-5-5-5-5-5-5-5-5-5-5-5-5-5-|-5-5-5-5-5-5-5-5-5-5-3--3-|
|
| E E   Q       H                 H               E   Q  E
|-------------------------------|--------------------------|
|-------------------------------|--------------------------|
|-------------------------------|--------------------------|
|-------------------------------|--------------------------|
|-7-----------------------------|---------------------5--5-|
|-5-----------------------------|---------------------3--3-|


  A5
    PM----------------------------------------------|
  E S S S S S S S S S S S S S S   S S S S S S S S S S Q       E
|-------------------------------|---------------------------------|
|-------------------------------|---------------------------------|
|-------------------------------|---------------------------------|
|-------------------------------|---------------------9-------9---|
|-7-----------------------------|---------------------------------|
|-5-5-5-5-5-5-5-5-5-5-5-5-5-5-5-|-5-5-5-5-5-5-5-5-5-5-------------|
|
|                                 PM-------------------------------
| E E   Q       H                 S S S S S S S S S S S S S S S S
|-------------------------------|---------------------------------|
|-------------------------------|---------------------------------|
|-------------------------------|---------------------------------|
|-------------------------------|---------------------------------|
|-7-----------------------------|---------------------------------|
|-5-----------------------------|-5-5-5-5-5-5-5-5-5-5-5-5-5-5-5-5-|


      PM----------------------------------------------|
  E   S S S S S S S S S S S S S S   S S S S S S S S S S Q       E
|---------------------------------|------------------------------------|
|---------------------------------|------------------------------------|
|---------------------------------|---------------------5-------5------|
|-7-------------------------------|------------------------------------|
|---------------------------------|------------------------------------|
|-----5-5-5-5-5-5-5-5-5-5-5-5-5-5-|-5-5-5-5-5-5-5-5-5-5----------------|
|
|-----------------------------------------------------------------|
| S S S S S S S S S S S S S S S S   S S S S S S S S S S S S S S S S
|---------------------------------|------------------------------------|
|---------------------------------|------------------------------------|
|---------------------------------|------------------------------------|
|---------------------------------|------------------------------------|
|---------------------------------|------------------------------------|
|-5-5-5-5-5-5-5-5-5-5-5-5-5-5-5-5-|-5-5-5-5-5-5-5-5-5-5-5-5-5-5-5-5----|


  G5                                                    F5
      PM----------------------------------------------|
  E   S S S S S S S S S S S S S S   S S S S S S S S S S Q       E
|---------------------------------|---------------------------------|
|---------------------------------|---------------------------------|
|---------------------------------|---------------------------------|
|---------------------------------|---------------------------------|
|-5-------------------------------|---------------------3-------3---|
|-3---3-3-3-3-3-3-3-3-3-3-3-3-3-3-|-3-3-3-3-3-3-3-3-3-3-1-------1---|
|
| PM-----------------------------------------------------------------
| S S S S S S S S S S S S S S S S   S S S S S S S S S S S S S S S S
|---------------------------------|---------------------------------|
|---------------------------------|---------------------------------|
|-4-4-7-7-5-5-7-7-4-4-7-7-5-5-7-7-|-4-4-7-7-5-5-7-7-4-4-7-7-5-5-7-7-|
|---------------------------------|---------------------------------|
|---------------------------------|---------------------------------|
|---------------------------------|---------------------------------|


  A                                 F            (G)
  PM----------------------------|     PM----|
  S S S S S S S S S S S S S S S S   E S S S S Q  Q  E
|---------------------------------|----------------------|
|---------------------------------|----------------------|
|---------------------------------|-----------4----------|
|---------------------------------|-7---------5--5--5----|
|---------------------------------|-8-0-0-0-0----5--5----|
|-5-5-5-5-5-5-5-5-5-5-5-5-5-5-5-5-|----------------------|
|
|-------------------------------|     PM----|
| S S S S S S S S S S S S S S S S   E S S S S Q  Q  E
|---------------------------------|----------------------|
|---------------------------------|----------------------|
|---------------------------------|-----------4----------|
|---------------------------------|-7---------5--5--5----|
|-0-0-0-0-0-0-0-0-0-0-0-0-0-0-0-0-|-8-0-0-0-0----5--5----|
|---------------------------------|----------------------|


 Bridge
  $
  A5                                B5
  Gtr I
  S S S S S S S S S S S S S S S S   S S S S S S S S S S S S S S S S
|-----------------7p0-------------|-----------------7p0-------------|
|-5p0-4p0-5p0-7p0-----7p0-5p0-4p0-|-7p0-5p0-7p0-8p0-----8p0-7p0-5p0-|
|---------------------------------|---------------------------------|
|---------------------------------|---------------------------------|
|---------------------------------|---------------------------------|
|---------------------------------|---------------------------------|
|
| Gtr II
| W                                 W
|---------------------------------|---------------------------------|
|---------------------------------|---------------------------------|
|-2-------------------------------|-4-------------------------------|
|-2-------------------------------|-4-------------------------------|
|-0-------------------------------|-2-------------------------------|
|---------------------------------|---------------------------------|


  C5                                  G5                D/F#
  S S S S S S  S S S S  S S S S S S    S S  S S S S S S  S S S S S S S S
|------------------7p0--------------|--7p0----------------------------------|
|-8p0-7p0-8p0-10p0-----10p0-8p0-7p0-|------10p0-8p0-7p0--8p0-7p0-5p0-4p0----|
|-----------------------------------|---------------------------------------|
|-----------------------------------|---------------------------------------|
|-----------------------------------|---------------------------------------|
|-----------------------------------|---------------------------------------|
|
| W                                    H                 H
|-----------------------------------|---------------------------------------|
|-----------------------------------|---------------------------------------|
|-5---------------------------------|---------------------------------------|
|-5---------------------------------|-12----------------12------------------|
|-3---------------------------------|-10-----------------9------------------|
|-----------------------------------|---------------------------------------|


  A5                                B5
  S S S S S S S S S S S S S S S S   S S S S S S S S S S S S S S S S
|-----------------7p0-------------|-----------------7p0-------------|
|-5p0-4p0-5p0-7p0-----7p0-5p0-4p0-|-7p0-5p0-7p0-8p0-----8p0-7p0-5p0-|
|---------------------------------|---------------------------------|
|---------------------------------|---------------------------------|
|---------------------------------|---------------------------------|
|---------------------------------|---------------------------------|
|
| W                                 W
|---------------------------------|---------------------------------|
|---------------------------------|---------------------------------|
|-2-------------------------------|-4-------------------------------|
|-2-------------------------------|-4-------------------------------|
|-0-------------------------------|-2-------------------------------|
|---------------------------------|---------------------------------|


  C5                                  G5                D/F#
  S S S S S S  S S S S  S S S S S S    S S  S S S S S S  S S S S S S S S
|------------------7p0--------------|--7p0----------------------------------||
|-8p0-7p0-8p0-10p0-----10p0-8p0-7p0-|------10p0-8p0-7p0--8p0-7p0-5p0-4p0----||
|-----------------------------------|---------------------------------------||
|-----------------------------------|---------------------------------------||
|-----------------------------------|---------------------------------------||
|-----------------------------------|---------------------------------------||
|
| W                                    H                 H
|-----------------------------------|---------------------------------------||
|-----------------------------------|---------------------------------------||
|-5---------------------------------|---------------------------------------||
|-5---------------------------------|-12----------------12------------------||
|-3---------------------------------|-10-----------------9------------------||
|-----------------------------------|---------------------------------------||


 Chorus
  G5                                                        F5/C
  PM-----------------------------------------------------------------
  S S S S S S S S S S S S S S S S   S S S S S S S S S S S S S S S S
|---------------------------------|---------------------------------|
|---------------------------------|---------------------------------|
|---------------------------------|-----------------7-7-7-7---------|
|-5-5-5-5-5-5-5-5-8-8-8-8-5-5-5-5-|-5-5-5-5-5-5-5-5---------8-8-8-8-|
|---------------------------------|---------------------------------|
|---------------------------------|---------------------------------|
|
| Gtr II
|     PM------------------------|       PM--------|
| E   S S S S S S S S S S S S S S   E   S S S S S S Q       Q
|---------------------------------|---------------------------------|
|---------------------------------|---------------------------------|
|---------------------------------|---------------------------------|
|---------------------------------|-------------------------3-------|
|-5-------------------------------|-5---------------5-------3-------|
|-3---3-3-3-3-3-3-3-3-3-3-3-3-3-3-|-3---3-3-3-3-3-3-3---------------|


  D5                                                        Bb5/F
 -----------------------------------------------------------------|
  S S S S S S S S S S S S S S S S   S S S S S S S S S S S S S S S S
|---------------------------------|------------------------------------|
|---------------------------------|------------------------------------|
|---------------------------------|------------------------------------|
|---------------------------------|-----------------7-7-7-7------------|
|-5-5-5-5-5-5-5-5-8-8-8-8-5-5-5-5-|-5-5-5-5-5-5-5-5---------8-8-8-8----|
|---------------------------------|------------------------------------|
|
|     PM------------------------|       PM--------|
| E   S S S S S S S S S S S S S S   E   S S S S S S Q       Q
|---------------------------------|------------------------------------|
|---------------------------------|------------------------------------|
|---------------------------------|-------------------------3----------|
|-7-------------------------------|-7---------------7-------3----------|
|-5---5-5-5-5-5-5-5-5-5-5-5-5-5-5-|-5---5-5-5-5-5-5-5------------------|
|---------------------------------|------------------------------------|


  G5                                                        F5/C
  PM-----------------------------------------------------------------
  S S S S S S S S S S S S S S S S   S S S S S S S S S S S S S S S S
|---------------------------------|---------------------------------|
|---------------------------------|---------------------------------|
|---------------------------------|-----------------7-7-7-7---------|
|-5-5-5-5-5-5-5-5-8-8-8-8-5-5-5-5-|-5-5-5-5-5-5-5-5---------8-8-8-8-|
|---------------------------------|---------------------------------|
|---------------------------------|---------------------------------|
|
|     PM------------------------|       PM--------|
| E   S S S S S S S S S S S S S S   E   S S S S S S Q       Q
|---------------------------------|---------------------------------|
|---------------------------------|---------------------------------|
|---------------------------------|---------------------------------|
|---------------------------------|-------------------------3-------|
|-5-------------------------------|-5---------------5-------3-------|
|-3---3-3-3-3-3-3-3-3-3-3-3-3-3-3-|-3---3-3-3-3-3-3-3---------------|


  D5
 -----------------------------------------------------------------|
  S S S S S S S S S S S S S S S S   S S S S S S S S S S S S S S S S
|---------------------------------|------------------------------------|
|---------------------------------|------------------------------------|
|---------------------------------|------------------------------------|
|---------------------------------|-7-7-7-7---------7-7-7-7------------|
|-8-8-8-8-8-8-8-8-8-8-8-8-8-8-8-8-|---------8-8-8-8---------8-8-8-8----|
|---------------------------------|------------------------------------|
|
|     PM------------------------|       PM--------|
| E   S S S S S S S S S S S S S S   E   S S S S S S Q       Q
|---------------------------------|------------------------------------|
|---------------------------------|------------------------------------|
|---------------------------------|-------------------------3----------|
|-7-------------------------------|-7---------------7-------3----------|
|-5---5-5-5-5-5-5-5-5-5-5-5-5-5-5-|-5---5-5-5-5-5-5-5------------------|
|---------------------------------|------------------------------------|


  G5                                                        F5/C
  PM-----------------------------------------------------------------
  S S S S S S S S S S S S S S S S   S S S S S S S S S S S S S S S S
|---------------------------------|---------------------------------|
|---------------------------------|---------------------------------|
|---------------------------------|-----------------7-7-7-7---------|
|-5-5-5-5-5-5-5-5-8-8-8-8-5-5-5-5-|-5-5-5-5-5-5-5-5---------8-8-8-8-|
|---------------------------------|---------------------------------|
|---------------------------------|---------------------------------|
|
|     PM------------------------|       PM--------|
| E   S S S S S S S S S S S S S S   E   S S S S S S Q       Q
|---------------------------------|---------------------------------|
|---------------------------------|---------------------------------|
|---------------------------------|---------------------------------|
|---------------------------------|-------------------------3-------|
|-5-------------------------------|-5---------------5-------3-------|
|-3---3-3-3-3-3-3-3-3-3-3-3-3-3-3-|-3---3-3-3-3-3-3-3---------------|


  D5                                                        Bb5/F
 -----------------------------------------------------------------|
  S S S S S S S S S S S S S S S S   S S S S S S S S S S S S S S S S
|---------------------------------|------------------------------------|
|---------------------------------|------------------------------------|
|---------------------------------|------------------------------------|
|---------------------------------|-----------------7-7-7-7------------|
|-5-5-5-5-5-5-5-5-8-8-8-8-5-5-5-5-|-5-5-5-5-5-5-5-5---------8-8-8-8----|
|---------------------------------|------------------------------------|
|
|     PM------------------------|       PM--------|
| E   S S S S S S S S S S S S S S   E   S S S S S S Q       Q
|---------------------------------|------------------------------------|
|---------------------------------|------------------------------------|
|---------------------------------|-------------------------3----------|
|-7-------------------------------|-7---------------7-------3----------|
|-5---5-5-5-5-5-5-5-5-5-5-5-5-5-5-|-5---5-5-5-5-5-5-5------------------|
|---------------------------------|------------------------------------|


  G5                                                        F5/C
  PM-----------------------------------------------------------------
  S S S S S S S S S S S S S S S S   S S S S S S S S S S S S S S S S
|---------------------------------|---------------------------------|
|---------------------------------|---------------------------------|
|---------------------------------|-----------------7-7-7-7---------|
|-5-5-5-5-5-5-5-5-8-8-8-8-5-5-5-5-|-5-5-5-5-5-5-5-5---------8-8-8-8-|
|---------------------------------|---------------------------------|
|---------------------------------|---------------------------------|
|
|     PM------------------------|       PM--------|
| E   S S S S S S S S S S S S S S   E   S S S S S S Q       Q
|---------------------------------|---------------------------------|
|---------------------------------|---------------------------------|
|---------------------------------|---------------------------------|
|---------------------------------|-------------------------3-------|
|-5-------------------------------|-5---------------5-------3-------|
|-3---3-3-3-3-3-3-3-3-3-3-3-3-3-3-|-3---3-3-3-3-3-3-3---------------|


                                                             To Coda
  D5
 -----------------------------------------------------------------|
  S S S S S S S S S S S S S S S S   S S S S S S S S S S S S S S S S
|---------------------------------|-------------------------------------||
|---------------------------------|-------------------------------------||
|---------------------------------|-------------------------------------||
|---------------------------------|-7-7-7-7---------7-7-7-7-------------||
|-8-8-8-8-8-8-8-8-8-8-8-8-8-8-8-8-|---------8-8-8-8---------8-8-8-8-----||
|---------------------------------|-------------------------------------||
|
|     PM------------------------|       PM--------|
| E   S S S S S S S S S S S S S S   E   S S S S S S Q       Q
|---------------------------------|-------------------------------------||
|---------------------------------|-------------------------------------||
|---------------------------------|-------------------------3-----------||
|-7-------------------------------|-7---------------7-------3-----------||
|-5---5-5-5-5-5-5-5-5-5-5-5-5-5-5-|-5---5-5-5-5-5-5-5-------------------||
|---------------------------------|-------------------------------------||


 Guitar Break
  G5          Bb5           C5          Eb5   F5
   E  E  Q     E  E  Q       E  E  Q     Q     Q
|-------------------------|-------------------------|
|-------------------------|-------------------------|
|--------------3----------|--5-----------8----10----|
|--5-----------3----------|--5-----------8----10----|
|--5-----------1----------|--3-----------6-----8----|
|--3----------------------|-------------------------|
|
| Gtr II
|  E  E  E  E  E  E  E  E    E  E  E  E  E  E  E  E
|-------------------------|-------------------------|
|-11-10-11----11-10-11----|-11-10-11----13-11-10----|
|----------12----------12-|----------12----------10-|
|-------------------------|-------------------------|
|-------------------------|-------------------------|
|-------------------------|-------------------------|


  G5          Bb5           C5          Eb5   D5
   E  E  Q     E  E  Q       E  E  Q     Q     Q
|-------------------------|-------------------------|
|-------------------------|-------------------------|
|--------------3----------|--5-----------8-----7----|
|--5-----------3----------|--5-----------8-----7----|
|--5-----------1----------|--3-----------6-----5----|
|--3----------------------|-------------------------|
|
|  E  E  E  E  E  E  E  E    E  E  E  E  E  E  E  E
|-------------------------|-------------------------|
|-11-10-11----11-10-11----|-11-10-11----13-11-10----|
|----------12----------12-|----------12----------10-|
|-------------------------|-------------------------|
|-------------------------|-------------------------|
|-------------------------|-------------------------|


    C5                      Eb5
     H                       H
||--------------------------------------------------|
||o-------------------------------------------------|
||---5-----------------------8----------------------|
||---5-----------------------8----------------------|
||o--3-----------------------6----------------------|
||--------------------------------------------------|
|
|    S  S  S  S  S  S  S  S  S  S  S  S  S  S  S  S
||--15-15-13-13-15-15-------15-15-13-13-15-15-------|
||o-------------------16-16-------------------16-16-|
||--------------------------------------------------|
||--------------------------------------------------|
||o-------------------------------------------------|
||--------------------------------------------------|
|
|   Gtr III
|    S  S  S  S  S  S  S  S  S  S  S  S  S  S  S  S
||--------------------------------------------------|
||o-16-16-15-15-16-16-------16-16-15-15-16-16-------|
||--------------------17-17-------------------17-17-|
||--------------------------------------------------|
||o-------------------------------------------------|
||--------------------------------------------------|


  F5                      G#5         G5
   H                       Q           Q
|---------------------------------------------------||
|--------------------------------------------------o||
|-10------------------------------------------------||
|-10-----------------------6-----------5------------||
|--8-----------------------6-----------5-----------o||
|--------------------------4-----------3------------||
|
|  S  S  S  S  S  S  S  S  S  S  S  S  S  S  S  S
|-15-15-13-13-15-15-------16-16-15-15-13-13---------||
|-------------------16-16-------------------16-16--o||
|---------------------------------------------------||
|---------------------------------------------------||
|--------------------------------------------------o||
|---------------------------------------------------||
|
|  S  S  S  S  S  S  S  S  S  S  S  S  S  S  S  S
|---------------------------------------------------||
|-16-16-15-15-16-16-------18-18-16-16-15-15--------o||
|-------------------17-17-------------------17-17---||
|---------------------------------------------------||
|--------------------------------------------------o||
|---------------------------------------------------||


  G5          Bb5           C5          Eb5   F5
   H           H             H           Q     Q
|-------------------------|-------------------------|
|-------------------------|-------------------------|
|--------------3----------|--5-----------8----10----|
|--5-----------3----------|--5-----------8----10----|
|--5-----------1----------|--3-----------6-----8----|
|--3----------------------|-------------------------|
|
|  E  E  E  E  E  E  E  E    E  E  E  E  E  E  E  E
|-------------------------|-------------------------|
|-11-10-11----11-10-11----|-11-10-11----13-11-10----|
|----------12----------12-|----------12----------10-|
|-------------------------|-------------------------|
|-------------------------|-------------------------|
|-------------------------|-------------------------|


  G5          Bb5           C5          Eb5   D5
   H           H             H           Q     Q
|-------------------------|-------------------------||
|-------------------------|-------------------------||
|--------------3----------|--5-----------8-----7----||
|--5-----------3----------|--5-----------8-----7----||
|--5-----------1----------|--3-----------6-----5----||
|--3----------------------|-------------------------||
|
|  E  E  E  E  E  E  E  E    E  E  E  E  E  E  E  E
|-------------------------|-------------------------||
|-11-10-11----11-10-11----|-11-10-11----13-11-10----||
|----------12----------12-|----------12----------10-||
|-------------------------|-------------------------||
|-------------------------|-------------------------||
|-------------------------|-------------------------||


 Guitar Solo
  G5      Bb5      C5             Eb5   F5
  H        H        H               Q    Q
|----------------|----------------------------|
|----------------|----------------------------|
|----------3-----|--5---------------8---10----|
|-5--------3-----|--5---------------8---10----|
|-5--------1-----|--3---------------6----8----|
|-3--------------|----------------------------|
|
|       ~~~~~~                      ~~~~
| E E E E +H       +E   E E  E     +Q    E  E
|---8-6----------|----------------------------|
|----------------|----------12b13-(12)--15h16-|
|-5-----5-(5)----|-(5)-/8-7-------------------|
|----------------|----------------------------|
|----------------|----------------------------|
|----------------|----------------------------|


  G5          Bb5          C5               Eb5   D5
   H            H            H               Q     Q
|------------------------|-------------------------------||
|------------------------|-------------------------------||
|---------------3--------|---5---------------8-----7-----||
|--5------------3--------|---5---------------8-----7-----||
|--5------------1--------|---3---------------6-----5-----||
|--3---------------------|-------------------------------||
|
|               ~~~~
|  E  E  E  E  +Q.     E    +E   S  S  E  E  E  E  E  E
|------------------------|-------------------------------||
|-15h16-15---------------|-------------------------------||
|----------12-(12)---/13-|-(13)-12h13p12-10--------------||
|------------------------|------------------13-12-10-----||
|------------------------|---------------------------13--||
|------------------------|-------------------------------||


 Guitar Break
  G5          Bb5           C5          Eb5   F5
   H           H             H           Q     Q
|-------------------------|-------------------------|
|-------------------------|-------------------------|
|--------------3----------|--5-----------8----10----|
|--5-----------3----------|--5-----------8----10----|
|--5-----------1----------|--3-----------6-----8----|
|--3----------------------|-------------------------|
|
|  E  E  E  E  E  E  E  E    E  E  E  E  E  E  E  E
|-------------------------|-------------------------|
|-11-10-11----11-10-11----|-11-10-11----13-11-10----|
|----------12----------12-|----------12----------10-|
|-------------------------|-------------------------|
|-------------------------|-------------------------|
|-------------------------|-------------------------|


  G5          Bb5           C5          Eb5   D5
   H           H             H           Q     Q
|-------------------------|-------------------------|
|-------------------------|-------------------------|
|--------------3----------|--5-----------8-----7----|
|--5-----------3----------|--5-----------8-----7----|
|--5-----------1----------|--3-----------6-----5----|
|--3----------------------|-------------------------|
|
|  E  E  E  E  E  E  E  E    E  E  E  E  E  E  E  E
|-------------------------|-------------------------|
|-11-10-11----11-10-11----|-11-10-11----13-11-10----|
|----------12----------12-|----------12----------10-|
|-------------------------|-------------------------|
|-------------------------|-------------------------|
|-------------------------|-------------------------|


    C5                      Eb5
     H                       H
||--------------------------------------------------|
||o-------------------------------------------------|
||---5-----------------------8----------------------|
||---5-----------------------8----------------------|
||o--3-----------------------6----------------------|
||--------------------------------------------------|
|
|    S  S  S  S  S  S  S  S  S  S  S  S  S  S  S  S
||--15-15-13-13-15-15-------15-15-13-13-15-15-------|
||o-------------------16-16-------------------16-16-|
||--------------------------------------------------|
||--------------------------------------------------|
||o-------------------------------------------------|
||--------------------------------------------------|
|
|   Gtr III
|    S  S  S  S  S  S  S  S  S  S  S  S  S  S  S  S
||--------------------------------------------------|
||o-16-16-15-15-16-16-------16-16-15-15-16-16-------|
||--------------------17-17-------------------17-17-|
||--------------------------------------------------|
||o-------------------------------------------------|
||--------------------------------------------------|


  F5                      G#5         Bb5             C5
                                                     6/4
   H                       Q           Q               W.
|--------------------------------------------------||----------------------------------------||
|-------------------------------------------------o||----------------------------------------||
|-10-----------------------------------3-----------||--5-------------------------------------||
|-10-----------------------6-----------3-----------||--5-------------------------------------||
|--8-----------------------6-----------1----------o||--3-------------------------------------||
|--------------------------4-----------------------||----------------------------------------||
|
|  S  S  S  S  S  S  S  S  S  S  S  S  S  S  S  S      E   E  E  E  E  E  E  E  E  E  E  E
|-15-15-13-13-15-15-------16-16-15-15-13-13--------||-15--13-15----15-13-15----15-13-15------||
|-------------------16-16-------------------16-16-o||-----------16----------16----------16---||
|--------------------------------------------------||----------------------------------------||
|--------------------------------------------------||----------------------------------------||
|-------------------------------------------------o||----------------------------------------||
|--------------------------------------------------||----------------------------------------||
|
|  S  S  S  S  S  S  S  S  S  S  S  S  S  S  S  S      E   E  E  E  E  E  E  E  E  E  E  E
|--------------------------------------------------||----------------------------------------||
|-16-16-15-15-16-16-------18-18-16-16-15-15-------o||-16--15-16----16-15-16----16-15-16------||
|-------------------17-17-------------------17-17--||-----------17----------17----------17---||
|--------------------------------------------------||----------------------------------------||
|-------------------------------------------------o||----------------------------------------||
|--------------------------------------------------||----------------------------------------||


 Chorus
  G5
 4/4
  Gtr I
  PM-----------------------------------------------------------------
  S S S S S S S S S S S S S S S S   S S S S S S S S S S S S S S S S
|---------------------------------|---------------------------------|
|---------------------------------|---------------------------------|
|---------------------------------|-----------------7-7-7-7---------|
|-5-5-5-5-5-5-5-5-8-8-8-8-5-5-5-5-|-5-5-5-5-5-5-5-5---------8-8-8-8-|
|---------------------------------|---------------------------------|
|---------------------------------|---------------------------------|
|
| Gtr II
|     PM------------------------|       PM--------|
| E   S S S S S S S S S S S S S S   E   S S S S S S Q       Q
|---------------------------------|---------------------------------|
|---------------------------------|---------------------------------|
|---------------------------------|---------------------------------|
|---------------------------------|-------------------------3-------|
|-5-------------------------------|-5---------------5-------3-------|
|-3---3-3-3-3-3-3-3-3-3-3-3-3-3-3-|-3---3-3-3-3-3-3-3---------------|


  D5                                                        Bb5/F
 -----------------------------------------------------------------|
  S S S S S S S S S S S S S S S S   S S S S S S S S S S S S S S S S
|---------------------------------|-----------------------------------|
|---------------------------------|-----------------------------------|
|---------------------------------|-----------------------------------|
|---------------------------------|-----------------7-7-7-7-----------|
|-5-5-5-5-5-5-5-5-8-8-8-8-5-5-5-5-|-5-5-5-5-5-5-5-5---------8-8-8-8---|
|---------------------------------|-----------------------------------|
|
|     PM------------------------|       PM--------|
| E   S S S S S S S S S S S S S S   E   S S S S S S Q       Q
|---------------------------------|-----------------------------------|
|---------------------------------|-----------------------------------|
|---------------------------------|-------------------------3---------|
|-7-------------------------------|-7---------------7-------3---------|
|-5---5-5-5-5-5-5-5-5-5-5-5-5-5-5-|-5---5-5-5-5-5-5-5-----------------|
|---------------------------------|-----------------------------------|


  G5                                                        F5/C
  PM-----------------------------------------------------------------
  S S S S S S S S S S S S S S S S   S S S S S S S S S S S S S S S S
|---------------------------------|---------------------------------|
|---------------------------------|---------------------------------|
|---------------------------------|-----------------7-7-7-7---------|
|-5-5-5-5-5-5-5-5-8-8-8-8-5-5-5-5-|-5-5-5-5-5-5-5-5---------8-8-8-8-|
|---------------------------------|---------------------------------|
|---------------------------------|---------------------------------|
|
|     PM------------------------|       PM--------|
| E   S S S S S S S S S S S S S S   E   S S S S S S Q       Q
|---------------------------------|---------------------------------|
|---------------------------------|---------------------------------|
|---------------------------------|---------------------------------|
|---------------------------------|-------------------------3-------|
|-5-------------------------------|-5---------------5-------3-------|
|-3---3-3-3-3-3-3-3-3-3-3-3-3-3-3-|-3---3-3-3-3-3-3-3---------------|


  D5
 -----------------------------------------------------------------|
  S S S S S S S S S S S S S S S S   S S S S S S S S S S S S S S S S
|---------------------------------|------------------------------------||
|---------------------------------|------------------------------------||
|---------------------------------|------------------------------------||
|---------------------------------|-7-7-7-7---------7-7-7-7------------||
|-8-8-8-8-8-8-8-8-8-8-8-8-8-8-8-8-|---------8-8-8-8---------8-8-8-8----||
|---------------------------------|------------------------------------||
|
|     PM------------------------|       PM--------|
| E   S S S S S S S S S S S S S S   E   S S S S S S Q       Q
|---------------------------------|------------------------------------||
|---------------------------------|------------------------------------||
|---------------------------------|-------------------------3----------||
|-7-------------------------------|-7---------------7-------3----------||
|-5---5-5-5-5-5-5-5-5-5-5-5-5-5-5-|-5---5-5-5-5-5-5-5------------------||
|---------------------------------|------------------------------------||


 2nd Verse
  A5
      PM----------------------------------------------|
  E   S S S S S S S S S S S S S S   S S S S S S S S S S Q       E
|---------------------------------|---------------------------------|
|---------------------------------|---------------------------------|
|---------------------------------|---------------------------------|
|---------------------------------|---------------------9-------9---|
|-7-------------------------------|---------------------------------|
|-5---5-5-5-5-5-5-5-5-5-5-5-5-5-5-|-5-5-5-5-5-5-5-5-5-5-------------|
|
| PM-----------------------------------------------------------------
| S S S S S S S S S S S S S S S S   S S S S S S S S S S S S S S S S
|---------------------------------|---------------------------------|
|---------------------------------|---------------------------------|
|---------------------------------|---------------------------------|
|---------------------------------|---------------------------------|
|---------------------------------|---------------------------------|
|-5-5-5-5-5-5-5-5-5-5-5-5-5-5-5-5-|-5-5-5-5-5-5-5-5-5-5-5-5-5-5-5-5-|


      PM----------------------------------------------|
  E   S S S S S S S S S S S S S S   S S S S S S S S S S Q       E
|---------------------------------|------------------------------------|
|---------------------------------|------------------------------------|
|---------------------------------|---------------------5-------5------|
|-7-------------------------------|------------------------------------|
|---------------------------------|------------------------------------|
|-----5-5-5-5-5-5-5-5-5-5-5-5-5-5-|-5-5-5-5-5-5-5-5-5-5----------------|
|
|-----------------------------------------------------------------|
| S S S S S S S S S S S S S S S S   S S S S S S S S S S S S S S S S
|---------------------------------|------------------------------------|
|---------------------------------|------------------------------------|
|---------------------------------|------------------------------------|
|---------------------------------|------------------------------------|
|---------------------------------|------------------------------------|
|-5-5-5-5-5-5-5-5-5-5-5-5-5-5-5-5-|-5-5-5-5-5-5-5-5-5-5-5-5-5-5-5-5----|


  G5                                                    F5
      PM----------------------------------------------|
  E   S S S S S S S S S S S S S S   S S S S S S S S S S Q       E
|---------------------------------|---------------------------------|
|---------------------------------|---------------------------------|
|---------------------------------|---------------------------------|
|---------------------------------|---------------------------------|
|-5-------------------------------|---------------------3-------3---|
|-3---3-3-3-3-3-3-3-3-3-3-3-3-3-3-|-3-3-3-3-3-3-3-3-3-3-1-------1---|
|
| PM-----------------------------------------------------------------
| S S S S S S S S S S S S S S S S   S S S S S S S S S S S S S S S S
|---------------------------------|---------------------------------|
|---------------------------------|---------------------------------|
|-4-4-7-7-5-5-7-7-4-4-7-7-5-5-7-7-|-4-4-7-7-5-5-7-7-4-4-7-7-5-5-7-7-|
|---------------------------------|---------------------------------|
|---------------------------------|---------------------------------|
|---------------------------------|---------------------------------|


  A                                                 (G)
  PM----------------------------|     PM----|
  S S S S S S S S S S S S S S S S   E S S S S Q     Q     E
|---------------------------------|----------------------------|
|---------------------------------|----------------------------|
|---------------------------------|-----------4----------------|
|---------------------------------|-7---------5-----5-----5----|
|---------------------------------|-8---------------5-----5----|
|-5-5-5-5-5-5-5-5-5-5-5-5-5-5-5-5-|---5-5-5-5------------------|
|
|-------------------------------|     PM----|
| S S S S S S S S S S S S S S S S   E S S S S E +E  E +E  E
|---------------------------------|----------------------------|
|---------------------------------|----------------------------|
|---------------------------------|-----------4-(4)------------|
|---------------------------------|-7---------5-(5)-5-(5)-5----|
|---------------------------------|-8---------------5-(5)-5----|
|-5-5-5-5-5-5-5-5-5-5-5-5-5-5-5-5-|---5-5-5-5------------------|


  A5
      PM----------------------------------------------|
  E   S S S S S S S S S S S S S S   S S S S S S S S S S Q       E
|---------------------------------|---------------------------------|
|---------------------------------|---------------------------------|
|---------------------------------|---------------------------------|
|---------------------------------|---------------------9-------9---|
|-7-------------------------------|---------------------------------|
|-5---5-5-5-5-5-5-5-5-5-5-5-5-5-5-|-5-5-5-5-5-5-5-5-5-5-------------|
|
| PM-----------------------------------------------------------------
| S S S S S S S S S S S S S S S S   S S S S S S S S S S S S S S S S
|---------------------------------|---------------------------------|
|---------------------------------|---------------------------------|
|---------------------------------|---------------------------------|
|---------------------------------|---------------------------------|
|---------------------------------|---------------------------------|
|-5-5-5-5-5-5-5-5-5-5-5-5-5-5-5-5-|-5-5-5-5-5-5-5-5-5-5-5-5-5-5-5-5-|


      PM----------------------------------------------|
  E   S S S S S S S S S S S S S S   S S S S S S S S S S Q       E
|---------------------------------|------------------------------------|
|---------------------------------|------------------------------------|
|---------------------------------|---------------------5-------5------|
|-7-------------------------------|------------------------------------|
|---------------------------------|------------------------------------|
|-----5-5-5-5-5-5-5-5-5-5-5-5-5-5-|-5-5-5-5-5-5-5-5-5-5----------------|
|
|-----------------------------------------------------------------|
| S S S S S S S S S S S S S S S S   S S S S S S S S S S S S S S S S
|---------------------------------|------------------------------------|
|---------------------------------|------------------------------------|
|---------------------------------|------------------------------------|
|---------------------------------|------------------------------------|
|---------------------------------|------------------------------------|
|-5-5-5-5-5-5-5-5-5-5-5-5-5-5-5-5-|-5-5-5-5-5-5-5-5-5-5-5-5-5-5-5-5----|


  G5                                                    F5
      PM----------------------------------------------|
  E   S S S S S S S S S S S S S S   S S S S S S S S S S Q       E
|---------------------------------|---------------------------------|
|---------------------------------|---------------------------------|
|---------------------------------|---------------------------------|
|---------------------------------|---------------------------------|
|-5-------------------------------|---------------------3-------3---|
|-3---3-3-3-3-3-3-3-3-3-3-3-3-3-3-|-3-3-3-3-3-3-3-3-3-3-1-------1---|
|
| PM-----------------------------------------------------------------
| S S S S S S S S S S S S S S S S   S S S S S S S S S S S S S S S S
|---------------------------------|---------------------------------|
|---------------------------------|---------------------------------|
|-4-4-7-7-5-5-7-7-4-4-7-7-5-5-7-7-|-4-4-7-7-5-5-7-7-4-4-7-7-5-5-7-7-|
|---------------------------------|---------------------------------|
|---------------------------------|---------------------------------|
|---------------------------------|---------------------------------|


                                          D.S. al Coda
                                    F         G
  PM----------------------------|     PM----|
  S S S S S S S S S S S S S S S S   E S S S S Q  Q  E
|---------------------------------|-----------------------||
|---------------------------------|-----------------------||
|---------------------------------|-----------4-----------||
|---------------------------------|-7---------5--5--5-----||
|---------------------------------|-8------------5--5-----||
|-5-5-5-5-5-5-5-5-5-5-5-5-5-5-5-5-|---5-5-5-5-------------||
|
|-------------------------------|     PM----|
| S S S S S S S S S S S S S S S S   E S S S S Q  Q  E
|---------------------------------|-----------------------||
|---------------------------------|-----------------------||
|---------------------------------|-----------4-----------||
|---------------------------------|-7---------5--5--5-----||
|---------------------------------|-8------------5--5-----||
|-5-5-5-5-5-5-5-5-5-5-5-5-5-5-5-5-|---5-5-5-5-------------||


  &
  E5
  W          +W           +W           +W
|----------|------------|------------|--------||
|----------|------------|------------|--------||
|----------|------------|------------|--------||
|-9--------|-(9)--------|-(9)--------|-(9)----||
|-7--------|-(7)--------|-(7)--------|-(7)----||
|----------|------------|------------|--------||
|
| W          +W           +W           +W
|----------|------------|------------|--------||
|----------|------------|------------|--------||
|----------|------------|------------|--------||
|-9--------|-(9)--------|-(9)--------|-(9)----||
|-7--------|-(7)--------|-(7)--------|-(7)----||
|----------|------------|------------|--------||


   Outro
    E5             C5             D5             E5   G5    F#5
    W              W              W              Q.    Q.    Q
||---------------|--------------|--------------|-----------------|
||o--------------|--------------|--------------|-----------------|
||---------------|-5------------|-7------------|-----------------|
||--9------------|-5------------|-7------------|-9----12----11---|
||o-7------------|-3------------|-5------------|-7----10-----9---|
||---------------|--------------|--------------|-----------------|
|
|   Q.   Q.   Q    Q.   Q.   Q    Q.   Q.   Q    Q.    Q.    Q
||---------------|--------------|--------------|-----------------|
||o--------------|--------------|--------------|-----------------|
||---------------|--------------|--------------|-----------------|
||-------4----5--|-7----9----5--|-7----5----4--|------12----11---|
||o-7------------|--------------|--------------|-7----10-----9---|
||---------------|--------------|--------------|-----------------|


  E5             C5             D5             G5   B5
  W              W              W              H    H
|--------------|--------------|--------------|------------||
|--------------|--------------|--------------|-----------o||
|--------------|-5------------|-7------------|------4-----||
|-9------------|-5------------|-7------------|-5----4-----||
|-7------------|-3------------|-5------------|-5----2----o||
|--------------|--------------|--------------|-3----------||
|
| Q.   Q.   Q    Q.   Q.   Q    Q.   Q.   Q    W
|--------------|--------------|--------------|------------||
|--------------|--------------|--------------|-----------o||
|--------------|--------------|--------------|------------||
|------4----5--|-7----9----5--|-7----5----7--|-9----------||
|-7------------|--------------|--------------|-----------o||
|--------------|--------------|--------------|------------||


    N.C.
                                                 |-3-| |-3-| |-3-| |-3-|
    Q.   Q.   Q    Q.   Q.   Q    Q.   Q.   Q    E E E E E E E E E E E E
||---------------|--------------|--------------|--------------------------|
||o--------------|--------------|--------------|--------------------------|
||---------------|--------------|--------------|--------------------------|
||-------7----9--|-7----5-------|-7----9----7--|-5-4---5-4---5-4---5-4----|
||o-7------------|-----------7--|--------------|-----7-----7-----7-----7--|
||---------------|--------------|--------------|--------------------------|
|
|                                                |-3-| |-3-| |-3-| |-3-|
|   Q.   Q.   Q    Q.   Q.   Q    Q.   Q.   Q    E E E E E E E E E E E E
||---------------|--------------|--------------|--------------------------|
||o--------------|--------------|--------------|--------------------------|
||---------------|------4-------|--------------|--------------------------|
||-------4----5--|-7---------5--|-7----5----4--|-5-4---5-4---5-4---5-4----|
||o-7------------|--------------|--------------|-----7-----7-----7-----7--|
||---------------|--------------|--------------|--------------------------|


                                              1.
  Q.   Q.   Q    Q.   Q.   Q    Q.   Q.   Q    W
|--------------|--------------|--------------|-------||
|--------------|--------------|--------------|------o||
|--------------|--------------|--------------|-------||
|------7----9--|-7----5-------|-7----9----7--|-9-----||
|-7------------|-----------7--|--------------|------o||
|--------------|--------------|--------------|-------||
|
| Q.   Q.   Q    Q.   Q.   Q    Q.   Q.   Q    W
|--------------|--------------|--------------|-------||
|--------------|--------------|--------------|------o||
|--------------|--------------|--------------|-------||
|------4----5--|-7----9----5--|-7----5----7--|-9-----||
|-7------------|--------------|--------------|------o||
|--------------|--------------|--------------|-------||


  2.
  E5
  W
|---------------------------------|
|---------------------------------|
|---------------------------------|
|-9-------------------------------|
|-7-------------------------------|
|-0-------------------------------|
|
| Gtr II
| PM-------------------------------
| S S S S S S S S S S S S S S S S
|---------------------------------|
|---------------------------------|
|---------------------------------|
|-7h9p7h9p7h9p7h9p7h9p7h9p7h9p7h9p|
|---------------------------------|
|---------------------------------|


  H.=H
  +W                                 Q  E E H
|----------------------------------|-------------*|
|----------------------------------|-------------*|
|----------------------------------|-------------*|
|-(9)------------------------------|-9--9--------*|
|-(7)------------------------------|-7--7--------*|
|-(0)------------------------------|-0--0--------*|
|
|--------------------------------|
|  S S S S S S S S S S S S S S S S   Q  E E H
|----------------------------------|-------------*|
|----------------------------------|-------------*|
|----------------------------------|-------------*|
|--7h9p7h9p7h9p7h9p7h9p7h9p7h9p7h9-|-9--9--------*|
|----------------------------------|-7--7--------*|
|----------------------------------|-0--0--------*|




--------------------------------------------------------------------------------


Duration Legend
---------------
W - whole; H - half; Q - quarter; E - 8th; S - 16th; T - 32nd; X - 64th; a - acciaccatura
+ - note tied to previous; . - note dotted; .. - note double dotted
Uncapitalized letters represent notes that are staccato (1/2 duration)
Irregular groupings are notated above the duration line
Duration letters will always appear directly above the note/fret number it represents the
duration for.  Duration letters with no fret number below them represent rests.  Multi-
bar rests are notated in the form Wxn, where n is the number of bars to rest for.  Low
melody durations appear below the staff

Tablature Legend
----------------
 h   - hammer-on
 p   - pull-off
 b   - bend
 pb  - pre-bend
 r   - bend release (if no number after the r, then release immediately)
 /\  - slide into or out of (from/to "nowhere")
 s   - legato slide
 S   - shift slide
 - natural harmonic
[n]  - artificial harmonic
n(n) - tapped harmonic
 ~   - vibrato
 tr  - trill
 T   - tap
 TP  - trem. picking
 PM  - palm muting
\n/  - tremolo bar dip; n = amount to dip
 \n  - tremolo bar down
 n/  - tremolo bar up
/n\  - tremolo bar inverted dip
 =   - hold bend; also acts as connecting device for hammers/pulls
 <> - volume swell (louder/softer)
 x   - on rhythm slash represents muted slash
 o   - on rhythm slash represents single note slash

Misc Legend
-----------
 |  - bar
||  - double bar
||o - repeat start
o|| - repeat end
*|  - double bar (ending)
 :  - bar (freetime)
 $  - Segno
 &  - Coda
Tempo markers -  = BPM(8/16=s8/s16), where s8 = swing 8ths, s16 = swing 16ths

Tap to rate this tab
# A B C D E F G H I J K L M N O P Q R S T U V W X Y Z