Song name
# A B C D E F G H I J K L M N O P Q R S T U V W X Y Z

Hammerfall - Patient Zero tab

Hammerfall - Patient Zero

Tuning: Drop C
Tabbed By Ear By Johannes Kholod (Johannesx96)

Guitar covers by me on youtube:
http://www.youtube.com/user/Johannesx96

Intro:

D|--------------------------------------------------------------------------------------|
A|--------------------------------------------------------------------------------------|
F|--------------------------------------------------------------------------------------|
C|--------4---------5---------4--5--4--2--4---------------------------------------------|
G|--------2---------3---------2--3--2--0--2--5--4---------------------------------------|
C|--2--2------2--2------2--2-----------------5--4---------------------------------------|


D|--------------------------------------------------------------------------------------|
A|--------------------------------------------------------------------------------------|
F|--------------------------------------------------4-----------------------------------|
C|--------4---------5---------4--5--4--2--4---------2-----------------------------------|
G|--------2---------3---------2--3--2--0--2---5--4-----5-----4--------------------------|
C|--2--2------2--2------2--2------------------5--4-----5-----4--------------------------|

D|--------------------------------------------------------------------------------------|
A|--------------------------------------------------------------------------------------|
F|--------------------------------------------------------------------------------------|
C|--------4---------5---------4--5--4--2--4---------------------------------------------|
G|--------2---------3---------2--3--2--0--2--5--4---------------------------------------|
C|--2--2------2--2------2--2-----------------5--4---------------------------------------|


D|--------------------------------------------------------------------------------------|
A|--------------------------------------------------------------------------------------|
F|--------------------------------------------------4-----------------------------------|
C|--------4---------5---------4--5--4--2--4---------2-----------------------------------|
G|--------2---------3---------2--3--2--0--2---5--4-----5-----4--------------------------|
C|--2--2------2--2------2--2------------------5--4-----5-----4--------------------------|




D|--------------------------------------------------------------------------------------|
A|--------------------------------------------------------------------------------------|
F|--------------------------------------------------------------------------------------|
C|--3--2--------2-----------2--------2-----2--------3--2--------2--------5--------------|
G|--3--2--------2-----------2--------2-----2--------3--2--------2--------5--------------|
C|--3--2--2--2--2--2--2--2--2--2--2--2--2--2--2--2--3--2--2--2--2--2--2--5--------------|


D|--------------------------------------------------------------------------------------|
A|--------------------------------------------------------------------------------------|
F|--------------------------------------------------------------------------------------|
C|--3--2--------2-----------2--------2-----2--------3--2--------2--------0--------------|
G|--3--2--------2-----------2--------2-----2--------3--2--------2--------0--------------|
C|--3--2--2--2--2--2--2--2--2--2--2--2--2--2--2--2--3--2--2--2--2--2--2--0--------------|


D|--------------------------------------------------------------------------------------|
A|--------------------------------------------------------------------------------------|
F|--------------------------------------------------------------------------------------|
C|--3--2--------2-----------2--------2-----2--------3--2--------2--------5--------------|
G|--3--2--------2-----------2--------2-----2--------3--2--------2--------5--------------|
C|--3--2--2--2--2--2--2--2--2--2--2--2--2--2--2--2--3--2--2--2--2--2--2--5--------------|


D|--------------------------------------------------------------------------------------|
A|--------------------------------------------------------------------------------------|
F|--------------------------------------------------------------------------------------|
C|--3--2--------2-----------2--------2-----2--------3--2--------2--------0-----3--5-----|
G|--3--2--------2-----------2--------2-----2--------3--2--------2--------0-----3--5-----|
C|--3--2--2--2--2--2--2--2--2--2--2--2--2--2--2--2--3--2--2--2--2--2--2--0-----3--5-----|





D|--------------------------------------------------------------------------------------|
A|--------------------------------------------------------------------------------------|
F|--------------------------------------------------------------------------------------|
C|--3--2--------2-----------------------------------3--2--------2--------5--------------|
G|--3--2--------2-----------------------------------3--2--------2--------5--------------|
C|--3--2--2--2--2-----------------------------------3--2--2--2--2--2--2--5--------------|


D|--------------------------------------------------------------------------------------|
A|--------------------------------------------------------------------------------------|
F|--------------------------------------------------------------------------------------|
C|--3--2--------2-----------------------------------3--2--------2--------2-0------------|
G|--3--2--------2-----------------------------------3--2--------2--------2-0------------|
C|--3--2--2--2--2-----------------------------------3--2--2--2--2--2--2--2-0------------|


D|--------------------------------------------------------------------------------------|
A|--------------------------------------------------------------------------------------|
F|--------------------------------------------------------------------------------------|
C|--3--2--------2-----------------------------------3--2--------2--------5--------------|
G|--3--2--------2-----------------------------------3--2--------2--------5--------------|
C|--3--2--2--2--2-----------------------------------3--2--2--2--2--2--2--5--------------|


D|--------------------------------------------------------------------------------------|
A|--------------------------------------------------------------------------------------|
F|--------------------------------------------------------------------------------------|
C|--3--2--------2-----------------------------------3--2--------2--------0-----3--5-----|
G|--3--2--------2-----------------------------------3--2--------2--------0-----3--5-----|
C|--3--2--2--2--2-----------------------------------3--2--2--2--2--2--2--0-----3--5-----|


D|--------------------------------------------------------------------------------------|
A|--------------------------------------------------------------------------------------|
F|-------------------------------5------------------------------------------------------|
C|--6-------------5-------6------5----6----5--6--5--------------------------------------|
G|--6-------------5-------6------3----6----5--6--5--------------------------------------|
C|--6-------8--6--5-------6-----------6----5--6--5--------------------------------------|


D|--------------------------------------------------------------------------------------|
A|--------------------------------------------------------------------------------------|
F|--------------------------------------------------------------------------------------|
C|--6-------------5-6-5------3------6------5--6--5--------------------------------------|
G|--6-------------5-6-5------3------6------5--6--5--------------------------------------|
C|--6-------8--6--5-6-5------3------6------5--6--5--------------------------------------|





D|--------------------------------------------------------------------------------------|
A|--------------------------------------------------------------------------------------|
F|--------------------------------------------------------------------------------------|
C|--3--2--------2-----------2--------2-----2--------3--2--------2--------5--------------|
G|--3--2--------2-----------2--------2-----2--------3--2--------2--------5--------------|
C|--3--2--2--2--2--2--2--2--2--2--2--2--2--2--2--2--3--2--2--2--2--2--2--5--------------|


D|--------------------------------------------------------------------------------------|
A|--------------------------------------------------------------------------------------|
F|--------------------------------------------------------------------------------------|
C|--3--2--------2-----------2--------2-----2--------3--2--------2--------0--------------|
G|--3--2--------2-----------2--------2-----2--------3--2--------2--------0--------------|
C|--3--2--2--2--2--2--2--2--2--2--2--2--2--2--2--2--3--2--2--2--2--2--2--0--------------|


D|--------------------------------------------------------------------------------------|
A|--------------------------------------------------------------------------------------|
F|--------------------------------------------------------------------------------------|
C|--3--2--------2-----------2--------2-----2--------3--2--------2--------5--------------|
G|--3--2--------2-----------2--------2-----2--------3--2--------2--------5--------------|
C|--3--2--2--2--2--2--2--2--2--2--2--2--2--2--2--2--3--2--2--2--2--2--2--5--------------|


D|--------------------------------------------------------------------------------------|
A|--------------------------------------------------------------------------------------|
F|--------------------------------------------------------------------------------------|
C|--3--2--------2-----------2--------2-----2--------3--2--------2--------0-----3--5-----|
G|--3--2--------2-----------2--------2-----2--------3--2--------2--------0-----3--5-----|
C|--3--2--2--2--2--2--2--2--2--2--2--2--2--2--2--2--3--2--2--2--2--2--2--0-----3--5-----|





D|--------------------------------------------------------------------------------------|
A|--------------------------------------------------------------------------------------|
F|--------------------------------------------------------------------------------------|
C|--3--2--------2-----------------------------------3--2--------2--------5--------------|
G|--3--2--------2-----------------------------------3--2--------2--------5--------------|
C|--3--2--2--2--2-----------------------------------3--2--2--2--2--2--2--5--------------|


D|--------------------------------------------------------------------------------------|
A|--------------------------------------------------------------------------------------|
F|--------------------------------------------------------------------------------------|
C|--3--2--------2-----------------------------------3--2--------2--------0--------------|
G|--3--2--------2-----------------------------------3--2--------2--------0--------------|
C|--3--2--2--2--2-----------------------------------3--2--2--2--2--2--2--0--------------|


D|--------------------------------------------------------------------------------------|
A|--------------------------------------------------------------------------------------|
F|--------------------------------------------------------------------------------------|
C|--3--2--------2-----------------------------------3--2--------2--------5--------------|
G|--3--2--------2-----------------------------------3--2--------2--------5--------------|
C|--3--2--2--2--2-----------------------------------3--2--2--2--2--2--2--5--------------|


D|--------------------------------------------------------------------------------------|
A|--------------------------------------------------------------------------------------|
F|--------------------------------------------------------------------------------------|
C|--3--2--------2-----------------------------------3--2--------2--------0-----3--5-----|
G|--3--2--------2-----------------------------------3--2--------2--------0-----3--5-----|
C|--3--2--2--2--2-----------------------------------3--2--2--2--2--2--2--0-----3--5-----|


D|--------------------------------------------------------------------------------------|
A|--------------------------------------------------------------------------------------|
F|-------------------------------5------------------------------------------------------|
C|--6-------------5-------6------5----6----5--6--5--------------------------------------|
G|--6-------------5-------6------3----6----5--6--5--------------------------------------|
C|--6-------8--6--5-------6-----------6----5--6--5--------------------------------------|


D|--------------------------------------------------------------------------------------|
A|--------------------------------------------------------------------------------------|
F|--------------------------------------------------------------------------------------|
C|--6-------------5-6-5------3------6------5--6--5--------------------------------------|
G|--6-------------5-6-5------3------6------5--6--5--------------------------------------|
C|--6-------8--6--5-6-5------3------6------5--6--5--------------------------------------|





D|--------------------------------------------------------------------------------------|
A|--------------------------------------------------------------------------------------|
F|--------------------------------------------------------------------------------------|
C|--------4---------5---------4--5--4--2--4---------------------------------------------|
G|--------2---------3---------2--3--2--0--2--5--4---------------------------------------|
C|--2--2------2--2------2--2-----------------5--4---------------------------------------|


D|--------------------------------------------------------------------------------------|
A|--------------------------------------------------------------------------------------|
F|--------------------------------------------------4-----------------------------------|
C|--------4---------5---------4--5--4--2--4---------2-----------------------------------|
G|--------2---------3---------2--3--2--0--2---5--4--------------------------------------|
C|--2--2------2--2------2--2------------------5--4-----2-2-2-2-2-2-2-2-2-2-2-2-2-2-2-2--|


D|--------------------------------------------------------------------------------------|
A|--------------------------------------------------------------------------------------|
F|--------------------------------------------------------------------------------------|
C|--------------------------------------------------------------------------------------|
G|--------------------------------------------------------------------------------------|
C|-2-2-2-2-2-2-2-2-2-2-2-2-2-2-2-2-2-2-2-2-2-2-2-2-2-2-2-2-2-2-2-2-2-2-2-2-2-2-2-2-2-2--|



________________________________________________________________________________________|
I got close but never figured out the part before the solo, and the solo itself.
And I don't want to post ay incorrect tabs. Sorry, but I'm only 14(At the time of posting 
this) and haven't come far enough in my 'musical carreer' to achieve something like this.
________________________________________________________________________________________|



D|--------------------------------------------------------------------------------------|
A|--------------------------------------------------------------------------------------|
F|-------------------------------5------------------------------------------------------|
C|--6-------------5-------6------5----6----5--6--5--------------------------------------|
G|--6-------------5-------6------3----6----5--6--5--------------------------------------|
C|--6-------8--6--5-------6-----------6----5--6--5--------------------------------------|


D|--------------------------------------------------------------------------------------|
A|--------------------------------------------------------------------------------------|
F|--------------------------------------------------------------------------------------|
C|--6-------------5-6-5------3------6------5--6--5--------------------------------------|
G|--6-------------5-6-5------3------6------5--6--5--------------------------------------|
C|--6-------8--6--5-6-5------3------6------5--6--5--------------------------------------|





D|--------------------------------------------------------------------------------------|
A|--------------------------------------------------------------------------------------|
F|--------------------------------------------------------------------------------------|
C|--3--2--------2-----------2--------2-----2--------3--2--------2--------5--------------|
G|--3--2--------2-----------2--------2-----2--------3--2--------2--------5--------------|
C|--3--2--2--2--2--2--2--2--2--2--2--2--2--2--2--2--3--2--2--2--2--2--2--5--------------|


D|--------------------------------------------------------------------------------------|
A|--------------------------------------------------------------------------------------|
F|--------------------------------------------------------------------------------------|
C|--3--2--------2-----------2--------2-----2--------3--2--------2--------0--------------|
G|--3--2--------2-----------2--------2-----2--------3--2--------2--------0--------------|
C|--3--2--2--2--2--2--2--2--2--2--2--2--2--2--2--2--3--2--2--2--2--2--2--0--------------|


D|--------------------------------------------------------------------------------------|
A|--------------------------------------------------------------------------------------|
F|--------------------------------------------------------------------------------------|
C|--3--2--------2-----------2--------2-----2--------3--2--------2--------5--------------|
G|--3--2--------2-----------2--------2-----2--------3--2--------2--------5--------------|
C|--3--2--2--2--2--2--2--2--2--2--2--2--2--2--2--2--3--2--2--2--2--2--2--5--------------|


D|--------------------------------------------------------------------------------------|
A|--------------------------------------------------------------------------------------|
F|--------------------------------------------------------------------------------------|
C|--3--2--------2-----------2--------2-----2--------3--2--------2--------0-----3--5-----|
G|--3--2--------2-----------2--------2-----2--------3--2--------2--------0-----3--5-----|
C|--3--2--2--2--2--2--2--2--2--2--2--2--2--2--2--2--3--2--2--2--2--2--2--0-----3--5-----|


The End.
Tap to rate this tab
 
# A B C D E F G H I J K L M N O P Q R S T U V W X Y Z