Song name
# A B C D E F G H I J K L M N O P Q R S T U V W X Y Z

Hammerfall - One More Time tab

Hammerfall - One More Time
Tuning: Drop C


Tabbed by ear by Johannes Kholod (Johannesx96)
Guitar covers by me on youtube:
http://www.youtube.com/user/Johannesx96



0:09

D|----------------------------------------------------------------------------------|
A|----------------------------------------------------------------------------------|
F|----------------------------------------------------------------------------------|
C|--------3-----------------5-------------------------------------------------------|
G|--------3-----------------5-------------------------------------------------------|
C|--2--2--3--2--2--2--2--2--5--2--2--2--2--2----------------------------------------|


D|----------------------------------------------------------------------------------|
A|----------------------------------------------------------------------------------|
F|----------------------------------------------------------------------------------|
C|--------3-----------------5------------------2--3--2------------------------------|
G|--------3-----------------5------------------2--3--2------------------------------|
C|--2--2--3--2--2--2--2--2--5--2--2--2--2--2---2--3--2------------------------------|


D|----------------------------------------------------------------------------------|
A|----------------------------------------------------------------------------------|
F|----------------------------------------------------------------------------------|
C|--------3-----------------5------------------2--3--2------------------------------|
G|--------3-----------------5------------------2--3--2------------------------------|
C|--2--2--3--2--2--2--2--2--5--2--2--2--2--2---2--3--2------------------------------|


D|----------------------------------------------------------------------------------|
A|----------------------------------------------------------------------------------|
F|----------------------------------------------------------------------------------|
C|--------3-----------------2--3--2------------2---4--5------------5---5------------|
G|--------3-----------------0--1--0---0--0--0--0---2--3---3--3--3--3---5------------|
C|--2--2--3--2--2--2--2--2---------------------------------------------5------------|


D|----------------------------------------------------------------------------------|
A|----------------------------------------------------------------------------------|
F|----------------------------------------------------------------------------------|
C|--3------------3---2--0------------0---2--2------------2--------------------------|
G|--3------------3---2--0------------0---2--0---0--0--0--0--------------------------|
C|--3---3--3--3--3---2--0---0--0--0--0---2------------------------------------------|


D|----------------------------------------------------------------------------------|
A|----------------------------------------------------------------------------------|
F|----------------------------------------------------------------------------------|
C|--4--5------------5---5--3------------3---2---0--0--0--2--------------------------|
G|--2--3---3--3--3--3---5--3------------3---2---0--0--0--2--------------------------|
C|----------------------5--3---3--3--3--3---2---0--0--0--2--------------------------|



0:37

D|----------------------------------------------------------------------------------|
A|----------------------------------------------------------------------------------|
F|----------------------------------------------------------------------------------|
C|--2------------2---4--5------------5---5--3------------3---2--0------------0---2--|
G|--0---0--0--0--0---2--3---3--3--3--3---5--3------------3---2--0------------0---2--|
C|---------------------------------------5--3---3--3--3--3---2--0---0--0--0--0---2--|


D|----------------------------------------------------------------------------------|
A|----------------------------------------------------------------------------------|
F|----------------------------------------------------------------------------------|
C|--2------------2---4--5------------5---5---3--3--3--0--0--0--2--------------------|
G|--0---0--0--0--0---2--3---3--3--3--3---5---3--3--3--0--0--0--2--------------------|
C|---------------------------------------5---3--3--3--0--0--0--2--------------------|
                                                                ///-Pick slide-/////


0:53

D|----------------------------------------------------------------------------------|
A|----------------------------------------------------------------------------------|
F|----------------------------------------------------------------------------------|
C|--5-----5-3------0------5------5------5-3------0------5---------------------------|
G|--5-----5-3------0------5------5------5-3------0------5---------------------------|
C|--5-----5-3------0------5------5------5-3------0------5---------------------------|



1:10

D|----------------------------------------------------------------------------------|
A|----------------------------------------------------------------------------------|
F|----------------------------------------------------------------------------------|
C|--------3-----------------5-------------------------------------------------------|
G|--------3-----------------5-------------------------------------------------------|
C|--2--2--3--2--2--2--2--2--5--2--2--2--2--2----------------------------------------|


D|----------------------------------------------------------------------------------|
A|----------------------------------------------------------------------------------|
F|----------------------------------------------------------------------------------|
C|--------3-----------------5------------------2--3--2------------------------------|
G|--------3-----------------5------------------2--3--2------------------------------|
C|--2--2--3--2--2--2--2--2--5--2--2--2--2--2---2--3--2------------------------------|


D|----------------------------------------------------------------------------------|
A|----------------------------------------------------------------------------------|
F|----------------------------------------------------------------------------------|
C|--------3-----------------5------------------2--3--2------------------------------|
G|--------3-----------------5------------------2--3--2------------------------------|
C|--2--2--3--2--2--2--2--2--5--2--2--2--2--2---2--3--2------------------------------|


D|----------------------------------------------------------------------------------|
A|----------------------------------------------------------------------------------|
F|----------------------------------------------------------------------------------|
C|--------3-----------------2--3--2------------2---4--5------------5---5------------|
G|--------3-----------------0--1--0---0--0--0--0---2--3---3--3--3--3---5------------|
C|--2--2--3--2--2--2--2--2---------------------------------------------5------------|


D|----------------------------------------------------------------------------------|
A|----------------------------------------------------------------------------------|
F|----------------------------------------------------------------------------------|
C|--3------------3---2--0------------0---2--2------------2--------------------------|
G|--3------------3---2--0------------0---2--0---0--0--0--0--------------------------|
C|--3---3--3--3--3---2--0---0--0--0--0---2------------------------------------------|


D|----------------------------------------------------------------------------------|
A|----------------------------------------------------------------------------------|
F|----------------------------------------------------------------------------------|
C|--4--5------------5---5--3------------3---2---0----2------------------------------|
G|--2--3---3--3--3--3---5--3------------3---2---0----2------------------------------|
C|----------------------5--3---3--3--3--3---2---0----2------------------------------|


D|----------------------------------------------------------------------------------|
A|----------------------------------------------------------------------------------|
F|----------------------------------------------------------------------------------|
C|--2------------2---4--5------------5---5--3------------3---2--0------------0---2--|
G|--0---0--0--0--0---2--3---3--3--3--3---5--3------------3---2--0------------0---2--|
C|---------------------------------------5--3---3--3--3--3---2--0---0--0--0--0---2--|



D|----------------------------------------------------------------------------------|
A|----------------------------------------------------------------------------------|
F|----------------------------------------------------------------------------------|
C|--2------------2---4--5------------5---5---3--3--3--0--0--0--2--------------------|
G|--0---0--0--0--0---2--3---3--3--3--3---5---3--3--3--0--0--0--2--------------------|
C|---------------------------------------5---3--3--3--0--0--0--2--------------------|
                                                                ///-Pick slide-/////


1:54

D|----------------------------------------------------------------------------------|
A|----------------------------------------------------------------------------------|
F|----------------------------------------------------------------------------------|
C|--5-----5-3------0------5------5------5-3------0------5---------------------------|
G|--5-----5-3------0------5------5------5-3------0------5---------------------------|
C|--5-----5-3------0------5------5------5-3------0------5---------------------------|


D|----------------------------------------------------------------------------------|
A|----------------------------------------------------------------------------------|
F|----------------------------------------------------------------------------------|
C|--2--3--2----------2--3--2----------2--3------------------------------------------|
G|--2--3--2----------2--3--2----------0--1------------------------------------------|
C|--2--3--2----------2--3--2--------------------------------------------------------|


____________________________________________________________________________________|
Once again I didn't exactly figure out the solo, but I got closer than when I tried 
with ''Patient Zero''.
I think I will post the solos later, when I spend some time on them.
But now at least I got the second guitar in the background. Enjoy.
____________________________________________________________________________________|

Solo part (2:16):

D|----------------------------------------------------------------------------------|
A|----------------------------------------------------------------------------------|
F|----------------------------------------------------------------------------------|
C|--7------5------2------3------7------5------2------3------------------------------|
G|--5------3------0------1------5------3------0------1------------------------------|
C|----------------------------------------------------------------------------------|


D|----------------------------------------------------------------------------------|
A|----------------------------------------------------------------------------------|
F|----------------------------------------------------------------------------------|
C|--5------3------0------5------5------3------0------5------------------------------|
G|--5------3------0------5------5------3------0------5------------------------------|
C|--5------3------0------5------5------3------0------5------------------------------|


D|----------------------------------------------------------------------------------|
A|----------------------------------------------------------------------------------|
F|----------------------------------------------------------------------------------|
C|--5------5--3------0------5------5------5--3------0------5------------------------|
G|--5------5--3------0------5------5------5--3------0------5------------------------|
C|--5------5--3------0------5------5------5--3------0------5------------------------|



3:39

D|----------------------------------------------------------------------------------|
A|----------------------------------------------------------------------------------|
F|----------------------------------------------------------------------------------|
C|--------3-----------------5-------------------------------------------------------|
G|--------3-----------------5-------------------------------------------------------|
C|--2--2--3--2--2--2--2--2--5--2--2--2--2--2----------------------------------------|


D|----------------------------------------------------------------------------------|
A|----------------------------------------------------------------------------------|
F|----------------------------------------------------------------------------------|
C|--------3-----------------5------------------2--3--2------------------------------|
G|--------3-----------------5------------------2--3--2------------------------------|
C|--2--2--3--2--2--2--2--2--5--2--2--2--2--2---2--3--2------------------------------|


D|----------------------------------------------------------------------------------|
A|----------------------------------------------------------------------------------|
F|----------------------------------------------------------------------------------|
C|--------3-----------------5------------------2--3--2------------------------------|
G|--------3-----------------5------------------2--3--2------------------------------|
C|--2--2--3--2--2--2--2--2--5--2--2--2--2--2---2--3--2------------------------------|


D|----------------------------------------------------------------------------------|
A|----------------------------------------------------------------------------------|
F|----------------------------------------------------------------------------------|
C|--------3-----------------5------------------2--3--2------------------------------|
G|--------3-----------------5------------------2--3--2------------------------------|
C|--2--2--3--2--2--2--2--2--5--2--2--2--2--2---2--3--2------------------------------|


D|----------------------------------------------------------------------------------|
A|----------------------------------------------------------------------------------|
F|----------------------------------------------------------------------------------|
C|--------3--------------2--3--------2--3------2------------------------------------|
G|--------3--------------0--1--------2--3------2------------------------------------|
C|--2--2--3--2--2--2--2--------------2--3------2------------------------------------|

The End.
Tap to rate this tab
 
# A B C D E F G H I J K L M N O P Q R S T U V W X Y Z