Song name
# A B C D E F G H I J K L M N O P Q R S T U V W X Y Z

Hammerfall - Blood Bound tab

This is the first part of the solo

E |-------------------------------------------------------------------| 
B |--18\--6/18-18\--6/18-18\----------------------------------------| 
G |-----------------------------8/10--10h12--12h13-13/15---13p12---8-|   
D |-------------------------------------------------------------------| 
A |-------------------------------------------------------------------| 
E |-------------------------------------------------------------------|

E |-------------------------------------------------------------------| 
B |--18\--6/18-18\--6/18-18\--------------------------------------18| 
G |-----------------------------8/10--10h12--12h13-13/15---13p12-----|   
D |-------------------------------------------------------------------| 
A |-------------------------------------------------------------------| 
E |-------------------------------------------------------------------|
Tap to rate this tab
# A B C D E F G H I J K L M N O P Q R S T U V W X Y Z