Song name
# A B C D E F G H I J K L M N O P Q R S T U V W X Y Z

Hammerfall - Fallen One tab

Hola a todos, esto es el intro y la primera parte del verso de la balada Fallen One de 
espero y les guste.

Hi everybody, this is the intro and the first part or the song Fallen One of Hammerfall, 
hopr you like it.

alguna sugerencia
Any commentary          wickedangel911@hotmail.com

tab By Ludwig Van

|---3-----3-----3-----5-----7-----7-----7-----10-----9------9------9------10-9----7-----7-----7-----10-7--------|
|-----5-----5-----5-----5-----7-----7-----7------7-----10-----10-----10--------10---8-----8-----8--------8------|
|-------4-----4-----4-----4-----7-----7-----7------7------9------9------9-------------7-----7-----7--------7----|
|---------------------------------------------------------------------------------------------------------------|
|---------------------------------------------------------------------------------------------------------------|
|---------------------------------------------------------------------------------------------------------------|

|---10-----9------9------9------10-9----7-----7-----7-----10-7--------|
|------7-----10-----10-----10--------10---8-----8-----8--------8------|
|--------7------9------9------9-------------7-----7-----7--------7----|
|---------------------------------------------------------------------|
|---------------------------------------------------------------------|
|---------------------------------------------------------------------|

|---3-----3-----3-----5-----7-----7-----7-----10-----9------9------9------10-9----7-----7-----7-----10-7--------|
|-----5-----5-----5-----5-----7-----7-----7------7-----10-----10-----10--------10---8-----8-----8--------8------|
|-------4-----4-----4-----4-----7-----7-----7------7------9------9------9-------------7-----7-----7--------7----|
|---------------------------------------------------------------------------------------------------------------|
|---------------------------------------------------------------------------------------------------------------|
|---------------------------------------------------------------------------------------------------------------|

|---10-----9------9------9------10-9----7-----7-----7-----10---7----------|
|------7-----10-----10-----10--------10---8-----8-----8------------8------|
|--------7------9------9------9-------------7-----7-----7--------------7--|
|-------------------------------------------------------------------------|
|-------------------------------------------------------------------------|
|-------------------------------------------------------------------------|


|----------------------------------------------|
|-------------------1--------1-----------4-----|
|-------0---------0--------2---2-------4-------|
|-----2---2-----2--------2-------2---4---------|
|---2-------2-3--------0-----------2-----------|
|-0--------------------------------------------|
Tap to rate this tab
# A B C D E F G H I J K L M N O P Q R S T U V W X Y Z