Song name
# A B C D E F G H I J K L M N O P Q R S T U V W X Y Z

Hammerfall - Raiders Of The Strorm tab

Intro


eb|------------------------------|
Bb|------------------------------|
Gb|---------------5-5-5-5-5-4-2/-|
Db|-2-2-2-2-5-0-2-5-5-5-5-5-4-2/-|
Ab|-2-2-2-2-5-0-2-3-3-3-3-3-2-0/-|
Eb|-0-0-0-0-3-0-0----------------|
        ___       _________
        P.M.         P.M.
        
Verse

eb|-----------------------------------------------|
Bb|-----------------------------------------------|
Gb|-----------5-5-5-5-5-5-------------------2-2-2-|
Db|-2-2-2-2-2-5-5-5-5-5-5-5-5-5-5-5-5-9-9-9-2-2-2-|
Ab|-2-2-2-2-2-3-3-3-3-3-3-5-5-5-5-5-5-9-9-9-0-0-0-|
Eb|-0-0-0-0-0-------------3-3-3-3-3-3-7-7-7-------|
    _   _____ ___   ___   ___   ___   ___   ___
   P.M.  P.M. P.M.  P.M.  P.M.  P.M.  P.M.  P.M.


an repeat



Chorus

eb|---------------------------|
Bb|---------------------------|
Gb|-------2-2-2-5-5-5-5-------|
Db|-5-5-5-2-2-2-5-5-5-5-7-8-7-|
Ab|-5-5-5-0-0-0-3-3-3-5-7-8-7-|
Eb|-3-3-3-------------3-5-6-5-|


eb|----------------------------|
Bb|----------------------------|
Gb|---------------5-5-5-5-5-4-2|
Db|-2-2-2-2-5-0-2-5-5-5-5-5-4-2|
Ab|-2-2-2-2-5-0-2-3-3-3-3-3-2-0|
Eb|-0-0-0-0-3-0-0--------------|

Raiders of the Storm, one with the wind .....



Please rate the tab! Thank you.
Tap to rate this tab
# A B C D E F G H I J K L M N O P Q R S T U V W X Y Z