Song name
# A B C D E F G H I J K L M N O P Q R S T U V W X Y Z

Hammerfall - Templar Flame tab

INTRO


E |------------------------------------------------------|
H |--7--6--4---7--6--4---7--6--4--6--7--9----------------|
G |------------------------------------------------------|
D |------------------------------------------------------|  x2
A |------------------------------------------------------|
E |------------------------------------------------------|


E |------------------------------------------------------|
H |------------------------------------------------------|
G |--8---4---6-------------------------------------------|
D |--8---4---6---8---------------------------------------| x2
A |--6---2---4---8---------------------------------------|
E |--------------6---------------------------------------|


VERSE


E |------------------------------------------------------|
H |------------------------------------------------------|
G |---8------------------------6---8---------------------|
D |---8------------------------6---8---------------------|
A |---6--6-6-6--6-6-6--6-6-6---4---6--6--6--6---6--6-----|
E |------------------------------------------------------|

E |------------------------------------------------------|
H |------------------------------------------------------|
G |--4--6--8--------------------------------6------------|
D |--4--6--8--------------------------------6---4--8-----|
A |--2--4--6--6--6--6---6--6--6---6--6--6---4---4--8-----|
E |---------------------------------------------2--6-----|

E |------------------------------------------------------|
H |------------------------------------------------------|
G |---8------------------------6---8---------------------|
D |---8------------------------6---8---------------------|
A |---6--6-6-6--6-6-6--6-6-6---4---6--6--6--6---6--6-----|
E |------------------------------------------------------|

E |------------------------------------------------------|
H |------------------------------------------------------|
G |--4--6--8--------------------------------6------------|
D |--4--6--8--------------------------------6---4--8-----|
A |--2--4--6--6--6--6---6--6--6---6--6--6---4---4--8-----|
E |---------------------------------------------2--6-----|


PRE-CHORUS

E |------------------------------------------------------|
H |------------------------------------------------------|
G |------------------------------------------------------|
D |-3-3-3-3-3-3-3-3-3-3-3-3--4-4-4-4-4-4-6-6-6-4-4-4-----|
A |-3-3-3-3-3-3-3-3-3-3-3-3--4-4-4-4-4-4-6-6-6-4-4-4-----|
E |-1-1-1-1-1-1-1-1-1-1-1-1--2-2-2-2-2-2-4-4-4-2-2-2-----|

E |------------------------------------------------------|
H |------------------------------------------------------|
G |------------------------------------------------------|
D |-3-3-3-3-3-3-3-3-3-3-3-3--4-4--6----------------------|
A |-3-3-3-3-3-3-3-3-3-3-3-3--4-4--6----------------------|
E |-1-1-1-1-1-1-1-1-1-1-1-1--2-2--4----------------------|


CHORUS

E |------------------------------------------------------|
H |------------------------------------------------------|
G |--8---4---6-------------------------------------------|
D |--8---4---6---8---------------------------------------| x2
A |--6---2---4---8---------------------------------------|
E |--------------6---------------------------------------|


BRIDGE


E |------------------------------------------------------|
H |------------------------------------------------------|
G |---------7---------------------7----------------------|
D |--4--4---7---4--4---2---4--4---7----------------------|
A |--4--4---5---4--4---2---4--4---5----------------------|
E |--2--2-------2--2---0---2--2--------------------------|

E |------------------------------------------------------|
H |------------------------------------------------------|
G |--6-6-6-6-6-6-6-6-6-6-6-6-----------------------------|
D |--6-6-6-6-6-6-6-6-6-6-6-6-----------------------------|
A |--4-4-4-4-4-4-4-4-4-4-4-4-----------------------------|
E |------------------------------------------------------|

E |------------------------------------------------------|
H |------------------------------------------------------|
G |---------7--------------6-6-6-6-6-6-6-6-6-6-6-6-------|
D |--4--4---7---4--4---2---6-6-6-6-6-6-6-6-6-6-6-6-------|
A |--4--4---5---4--4---2---4-4-4-4-4-4-4-4-4-4-4-4-------|
E |--2--2-------2--2---0---------------------------------|

E |------------------------------------------------------|
H |------------------------------------------------------|
G |--4-4-4-4-4-4-4-4-4-4-4-4-----------------------------|
D |--4-4-4-4-4-4-4-4-4-4-4-4---4-4--6--8-----------------|
A |--2-2-2-2-2-2-2-2-2-2-2-2---4-4--6--8-----------------|
E |----------------------------2-2--4--6-----------------|


Sorry, but I just couldn't figure out the solo. The rhythm part you've got to play while 
solo is playing is just the riff you play for the verse.
Tap to rate this tab
# A B C D E F G H I J K L M N O P Q R S T U V W X Y Z