Song name
# A B C D E F G H I J K L M N O P Q R S T U V W X Y Z

Hammerfall - Take The Black tab

Hi, this is ollie...It's my first tab....Hope ya like it

Intro riff
E-----------------------------------------------------------------|
B-----------------------------------------------------------------|
G----6-x-x-6-x-x-x-x-x-x-x-x-x-x-x-7-x-x-7-x-x-7-x-x-9-x-x-9-x-10-|
D----6-x-x-6-x-x-x-x-x-x-x-x-x-x-x-7-x-x-7-x-x-7-x-x-9-x-x-9-x-10-| (X3)
A----4-x-x-4-x-x-x-x-x-x-x-x-x-x-x-5-x-x-5-x-x-5-x-x-7-x-x-7-x-8--|
E-----------------------------------------------------------------|

Transition
E------------------------------|
B------------------------------|
G----4----4--3--2----------ape-|
D----4----4--3--2-------scr----|
A----2----2--1--0---ck---------|
E-----------------Pi-----------|
 ______________________________________________________________________
Verse Riff                                                             |
E--------------------------------------------------------------------  |
B--------------------------------------------------------------------  |
G--------------------------------------------------------------------  |
D----4-x-x-6-x-x-x-x-4-x-x-6-x-x-x-x-9-x-x-9-x-x-x-x-6-x-x-4-x-6-x-x-  |
A----4-x-x-6-x-x-x-x-4-x-x-6-x-x-x-x-9-x-x-9-x-x-x-x-6-x-x-4-x-6-x-x-  |
E----2-x-x-4-x-x-x-x-2-x-x-4-x-x-x-x-7-x-x-7-x-x-x-x-4-x-x-2-x-4-x-x-  |
                                                                       |
verse riff 2                                                           |
E--------------------------------------------------------------------  |
B--------------------------------------------------------------------  |
G--------------------------------------------------------------------  |
D----4-x-x-6-x-x-x-x-4-x-x-6-x-x-x-x-x-x-8-x-x-8-x-8-x-8-x-8---------  |
A----4-x-x-6-x-x-x-x-4-x-x-6-x-x-x-x-x-x-6-x-x-6-x-6-x-6-x-6---------  |
E----2-x-x-4-x-x-x-x-2-x-x-4-x-x-x-x-x-x-6-x-x-6-x-6-x-6-x-6---------  |
                                                                       |
REPEAT VERSE RIFF 1 + 2                                                |
_______________________________________________________________________
Verse Riffs


Chorus Riff 1

E--------------------------------------------------------------------|
B--------------------------------------------------------------------|
G--------------------------------------------------------------------|
D----6--------4--------6-----9-----4---------8-----------------------|
A----6--------4--------6-----9-----4---------8-----------------------|
E----4--------2--------4-----7-----2---------6-----------------------|


Chorus Riff 2
E--------------------------------------------------------------------|
B--------------------------------------------------------------------|
G--------------------------------------------------------------------|
D----8-x-x-x-x-x-x-9-x-8-x-x-x-x-9-x-8-x-x-x-x-x-6-4-6-7-------------|  (X3)
A----8-x-x-x-x-x-x-9-x-8-x-x-x-x-9-x-8-x-x-x-x-x-6-4-6-7-------------|
E----6-x-x-x-x-x-x-7-x-6-x-x-x-x-7-x-6-x-x-x-x-x-4-2-4-5-------------|
_________________________________________________________________________
Chorus Riff 3a                              Chorus riff 3b               |
E-----------------------------------------|--------------------------    |
B-----------------------------------------|--------------------------    |
G-----------------------------------------|--------------------------    |
D----6-----9---4----6------4---6---4----8-|--4--6---4----------------    |
A----6-----9---4----6------4---6---4----8-|--4--6---4----------------    |
E----4-----7---2----4------2---4---2----6-|--2--4---2----------------    |
                                                                         |
Repeat Chorus Riff 3a                                                    |
                                                                         |
Chorus Riff 3c                                                           |
E--------------------------------------------------------------------    |
B--------------------------------------------------------------------    |
G--------------------------------------------------------------------    |
D----9--8--6--4--6---------------------------------------------------    |
A----9--8--6--4--6---------------------------------------------------    |
E----7--6--4--2--4---------------------------------------------------    |
                                                                         |
-------------------------------------------------------------------------
                   Chorus Riff 3


Transition 2
E------|
B------|
G------|
D--9---|
A--9---|
E--7---|

Repeat Verse Riffs and Chorus Riffs

INTENSE GUITAR SOLO-WARNING-THIS MAY NOT BE COMPLETELY ACCURATE----IT's INTENSE!!!
I only have one little part of it now.. I'll tab the rest some other time
E-------------------17-17b-17-------------------------------7-9-11-9-7vvv--7-9-11-9-7-12v--|
B---------------------------------4-4-4-4-2---2-0-2-0--------------------------------------|
G--------------ape-------------------------------------1-1---------------------------------|
D-----------Scr----------------------------------------------------------------------------|
A------ck----------------------------------------------------------------------------------|
E----Pi------------------------------------------------------------------------------------|
Tap to rate this tab
 
# A B C D E F G H I J K L M N O P Q R S T U V W X Y Z