Song name
# A B C D E F G H I J K L M N O P Q R S T U V W X Y Z

Hammers Of Misfortune - The Bastard Sapling tab

The bastard sapling

As recorded by Hammers of misfortune

(From the 2001 The Bastard)

Transcribed by ScreamOfSilence

Tuning: (E A D G B E)



Acoustic part is play with those chords.



G         D        Bb  G  D


and the final with


|--------------------------------------------------------------------|
|-4-3-1--------------------------------------------------------------|
|-------3-2-3--------------------------------------------------------|
|--------------------------------------------------------------------|
|--------------------------------------------------------------------|
|--------------------------------------------------------------------|



|------------------------------------------------------------------------|
|------------------------------------------------------------------------|
|------------------------------------------------------------------------|
|-------3------------------------------------5-4-5-----------------------|
|---5-6---6-5---5-4-6-5-3-----3--------6---5-----------------------------|
|-3-----------6-----------6-5---6-5-2----6-------------------------------|


|------------------------------------------------------------------------|
|-------11-10-11---10---10---11----------------11------------------------|
|----12---------11---------------12--12--12-10---10--14--14--15--14--15--|
|-12-----------------12----10--8---13--12--------------13--13--16--16----|
|------------------------------------------------------------------------|
|------------------------------------------------------------------------|





|----------------------------------------------------------------------|
|----------------------------------------------------------------------|
|----------------------------------------------------------------------|
|-5-------5---------7--------------7---------------7-------------------|
|-5-------5---------5--------------5-8-----5-------5---6-5-3~----------|
|-3----33-3----3333----55-5~-6-5-3--6--66-3--3333------------6-5-6----|


|------------------------------------------------------------------------|
|------------------------------------------------------------------------|
|------------------------------------------------------------------------|
|-------3------------------------------------5-4-5-----------------------|
|---5-6---6-5---5-4-6-5-3-----3--------6---5-----------------------------|
|-3-----------6-----------6-5---6-5-2----6-------------------------------|

|------------------------------------------------------------------------|
|-------11-10-11---10---10---11----------------11------------------------|
|----12---------11---------------12--12--12-10---10--14--14--15--14--15--|
|-12-----------------12----10--8---13--12--------------13--13--16--16----|
|------------------------------------------------------------------------|
|------------------------------------------------------------------------|
Tap to rate this tab
# A B C D E F G H I J K L M N O P Q R S T U V W X Y Z