Song name
# A B C D E F G H I J K L M N O P Q R S T U V W X Y Z

Hands Like Houses - Lion Skin tab

-------------------------------------------------------------------------------
			     Lion Skin - Hands Like Houses
-------------------------------------------------------------------------------
Tabbed by: rockobesse
Email: kelseyluo@otmail.com

Tuning: C Tuning

I've tabbed this song out as an accompaniment for the vocals, so that's why the lead and 
rhythm guitar parts are placed together.
Corrections and comments are greatly appreciated. and congratulations to Hands Like 
Houses for signing with Rise Records! :D

Intro
 c|---------16-18-16----------------16-18-16-------14h16--x4---------------------|
 G|12----12----------16-12-12----12----------16-12-----------14h16--x4-----------|
Eb|---13----------------------13-------------------------------------------------|
Bb|------------------------------------------------------------------------------|
 F|------------------------------------------------------------------------------|
 C|------------------------------------------------------------------------------|

 c|------------------------------------------------18h19--x4-14h16--x4-----------|
 G|11-12-11----------------12h14-12h14-------------------------------------------|
Eb|---------11-13-11----11-------------11h13-11h13-------------------------------|
Bb|------------------13----------------------------------------------------------|
 F|------------------------------------------------------------------------------|
 C|------------------------------------------------------------------------------|

Verse 1
 c|---------14-------------------------------------------------------------------|
 G|12-11-12----12-11------------------12/14--x3-------------12/14--x2------------|
Eb|------------------13-11--x5-------------------11/13--x3------------13-11------|
Bb|----------------------------11/13---------------------------------------------|
 F|------------------------------------------------------------------------------|
 C|------------------------------------------------------------------------------|

 c|------------------------------------------------------------------14-11-0---2-|
 G|------------11-12-11--------------12/14--x3-------------12/14--x2-------0---2-|
Eb|------11-13----------11-13-11----------------11/13--x3------------------1---3-|
Bb|11-13-------------------------13----------------------------------------2---4-|
 F|------------------------------------------------------------------------2---4-|
 C|------------------------------------------------------------------------0---2-|

Chorus
   C+      E-  G+  C+      D+    E-
 c|0-------4---7---0-------2-----4-----------------------------------------------|
 G|0-------4---7---0-------2-----4-----------------------------------------------|
Eb|1-------4---8---1-------3-----4-----------------------------------------------|
Bb|2-------6---9---2-------4-----6-----------------------------------------------|
 F|2-------6---9---2-------4-----6-----------------------------------------------|
 C|0-------4---7---0-------2-----4-----------------------------------------------|

Verse 2
   C+                      D+                           E-
 c|0--00-00000-0--00-00000-2--22-22222-2--22-22222-|22224-4----------------------|
 G|0--00-00000-0--00-00000-2--22-22222-2--22-22222-|22224-4----------------------|
Eb|1--11-11111-1--11-11111-3--33-33333-3--33-33333-|33334-4----------------------|
Bb|2--22-22222-2--22-22222-4--44-44444-4--44-44444-|44446-6----------------------|
 F|2--22-22222-2--22-22222-4--44-44444-4--44-44444-|44446-6----------------------|
 C|0--00-00000-0--00-00000-2--22-22222-2--22-22222-|22224-4----------------------|
         xxxxx       xxxxx       xxxxx       xxxxx  xxxxx

   E-                A-                               C+              D+
 c|44444-44-44444-44-9-9-9-9-9--9-9--9-9-9-9-9--9-9--|0-0-0-0-0-0-0-0-2--2-2-2---|
 G|44444-44-44444-44-9-9-9-9-9--9-9--9-9-9-9-9--9-9--|0-0-0-0-0-0-0-0-2--2-2-2---|
Eb|44444-44-44444-44-9-9-9-9-9--9-9--9-9-9-9-9--9-9--|1-1-1-1-1-1-1-1-3--3-3-3---|
Bb|66666-66-66666-66-1111111111-1111-1111111111-1111-|2-2-2-2-2-2-2-2-4--4-4-4---|
 F|66666-66-66666-66-1111111111-1111-1111111111-1111-|2-2-2-2-2-2-2-2-4--4-4-4---|
 C|44444-44-44444-44-9-9-9-9-9--9-9--9-9-9-9-9--9-9--|0-0-0-0-0-0-0-0-2--2-2-2---|
   xxxxx    xxxxx    x x x x x       x x x x x

Chorus
   C+      E-  G+  C+      D+    E-
 c|0-------4---7---0-------2-----4-----------------------------------------------|
 G|0-------4---7---0-------2-----4-----------------------------------------------|
Eb|1-------4---8---1-------3-----4-----------------------------------------------|
Bb|2-------6---9---2-------4-----6-----------------------------------------------|
 F|2-------6---9---2-------4-----6-----------------------------------------------|
 C|0-------4---7---0-------2-----4-----------------------------------------------|

   C+      E-  G+  C+      D+      E-
 c|0-------4---7---0-------2-------4-4444-4444-4444-4----------------------------|
 G|0-------4---7---0-------2-------4-4444-4444-4444-4----------------------------|
Eb|1-------4---8---4-------3-------4-4444-4444-4444-4----------------------------|
Bb|2-------6---9---2-------4-------6-6666-6666-6666-6----------------------------|
 F|2-------6---9---2-------4-------6-6666-6666-6666-6----------------------------|
 C|0-------4---7---0-------2-------4-4444-4444-4444-4----------------------------|
                                     xxxx xxxx xxxx

Verse 3
   E-                                C+               D+
 c|4-4-4-4-4--44444-4-4-4-4-4--44444-0-0-0-0-0--00000-2-2-2-2-2--22222-----------|
 G|4-4-4-4-4--44444-4-4-4-4-4--44444-0-0-0-0-0--00000-2-2-2-2-2--22222-----------|
Eb|4-4-4-4-4--44444-4-4-4-4-4--44444-1-1-1-1-1--11111-3-3-3-3-3--33333-----------|
Bb|6-6-6-6-6--66666-6-6-6-6-6--66666-2-2-2-2-2--22222-4-4-4-4-4--44444-----------|
 F|6-6-6-6-6--66666-6-6-6-6-6--66666-2-2-2-2-2--22222-4-4-4-4-4--44444-----------|
 C|4-4-4-4-4--44444-4-4-4-4-4--44444-0-0-0-0-0--00000-2-2-2-2-2--22222-----------|
              xxxxx            xxxxx            xxxxx            xxxxx

   E-      D+      C+      D+
 c|4-------2-------0-------2-----------------------------------------------------|
 G|4-------2-------0-------2-----------------------------------------------------|
Eb|4-------3-------1-------3-----------------------------------------------------|
Bb|6-------4-------2-------4-----------------------------------------------------|
 F|6-------4-------2-------4-----------------------------------------------------|
 C|4-------2-------0-------2-----------------------------------------------------|

Bridge
   C+              E-          D+   C+
 c|0-------0-------4-------4---2---|0--------------------------------------------|
 G|0-------0-------4-------4---2---|0--------------------------------------------|
Eb|1-------1-------4-------4---3---|1--------------------------------------------|
Bb|2-------2-------6-------6---4---|2--------------------------------------------|
 F|2-------2-------6-------6---4---|2--------------------------------------------|
 C|0-------0-------4-------4---2---|0--------------------------------------------|

   C+      E-  G+  C+      D+
 c|0-------4---7---0-------2-----------------------------------------------------|
 G|0-------4---7---0-------2-----------------------------------------------------|
Eb|1-------4---8---1-------3-----------------------------------------------------|
Bb|2-------6---9---2-------4-----------------------------------------------------|
 F|2-------6---9---2-------4-----------------------------------------------------|
 C|0-------4---7---0-------2-----------------------------------------------------|

Chorus
   C+      E-  G+  C+      D+    E-
 c|0-------4---7---0-------2-----4-----------------------------------------------|
 G|0-------4---7---0-------2-----4-----------------------------------------------|
Eb|1-------4---8---1-------3-----4-----------------------------------------------|
Bb|2-------6---9---2-------4-----6-----------------------------------------------|
 F|2-------6---9---2-------4-----6-----------------------------------------------|
 C|0-------4---7---0-------2-----4-----------------------------------------------|

   C+      E-  G+  C+      D+
 c|0-------4---7---0-------2-----------------------------------------------------|
 G|0-------4---7---0-------2-----------------------------------------------------|
Eb|1-------4---8---1-------3-----------------------------------------------------|
Bb|2-------6---9---2-------4-----------------------------------------------------|
 F|2-------6---9---2-------4-----------------------------------------------------|
 C|0-------4---7---0-------2-----------------------------------------------------|

Outro
 c|9-11-7-9-6-7-4-6-2-4---2------2h4---------2-------2--|4~----------------------|
 G|---------------------4---2h4--------4---------2------|------------------------|
Eb|-----------------------------------------------------|------------------------|
Bb|-----------------------------------------------------|------------------------|
 F|-----------------------------------------------------|------------------------|
 C|-----------------------------------------------------|------------------------|

************************************

| /   slide up
| \   slide down
| h   hammer-on
| p   pull-off
| ~   vibrato
| +   harmonic
| x   Mute note
| b   Bend
| pb  Pre-bend
| br  Bend release
| pbr Pre-bend release
| brb Bend release bend

************************************

http://www.myspace.com/handslikehouses
Tap to rate this tab
# A B C D E F G H I J K L M N O P Q R S T U V W X Y Z