Song name
# A B C D E F G H I J K L M N O P Q R S T U V W X Y Z

Hands Like Houses - This Aint No Place For Animals tab

This Ain't No Place For Animals                            
Rhythm Guitar



      Verse                                                                        
      E.    E.  E  E  E  Q       E  E  E  E  E  E  E  E     E.  E.  E  E  E  Q     
D#||--------------------------|--------------------------|------------------------|
A#||--------------------------|--------------------------|------------------------|
F#||--------------------------|--------------------------|------------------------|
C#||--0-----0---0--0-----0----|--L--0--0--------0--0-----|--0---0---0--0-----0----|
G#||--0-----0---0--0-----0----|--L--0--0--------0--0-----|--0---0---0--0-----0----|
C#||--0-----0---0--0-----0----|--L--0--0--------0--0-----|--0---0---0--0-----0----|


  E  E  E  E  E  E  E  E     E  E  E  E  E  E  E  E     E  E  E  E  E  E  E  E   
--------------------------|--------------------------|--------------------------|
--------------------------|--------------------------|--------------------------|
--------------------------|--------------------------|--------------------------|
--L--0--0--------0--0-----|--8--8--------------8--8--|--------------8--8--8--8--|
--L--0--0--------0--0-----|--8--8--------------8--8--|--------------8--8--8--8--|
--L--0--0--------0--0-----|--8--8--------------8--8--|--------------8--8--8--8--|


   E   E   E   E   E  E   E   E      E   E   E  E  E  E  E  E   
---------------------------------|-----------------------------|
---------------------------------|-----------------------------|
---------------------------------|-----------------------------|
--10--10--10--10--10-----10--10--|--10--10--10-----7--7--7--7--|
--10--10--10--10--10-----10--10--|--10--10--10-----7--7--7--7--|
--10--10--10--10--10-----10--10--|--10--10--10-----7--7--7--7--|


  E.  E.  E  E  E  Q       E  E  E  E  E  E  E  E     E.  E.  E  E  E  Q     
------------------------|--------------------------|------------------------|
------------------------|--------------------------|------------------------|
------------------------|--------------------------|------------------------|
--0---0---0--0-----0----|--L--0--0--------0--0-----|--0---0---0--0-----0----|
--0---0---0--0-----0----|--L--0--0--------0--0-----|--0---0---0--0-----0----|
--0---0---0--0-----0----|--L--0--0--------0--0-----|--0---0---0--0-----0----|


                                               PM PM PM  
  E  E  E  E  E  E  E  E     E  E  E  E  E  E  S  S  E   
--------------------------|-----------------------------|
--------------------------|-----------------------------|
--------------------------|-----------------------------|
--L--0--0--------0--0-----|--8--8-----8--8--------------|
--L--0--0--------0--0-----|--8--8-----8--8-----8--8--8--|
--L--0--0--------0--0-----|--8--8-----8--8-----8--8--8--|


     PM PM PM                                                   
  E  S  S  E  E  E  E  E  E      E   E   E   E   E  E   E   E   
-----------------------------|---------------------------------|
-----------------------------|---------------------------------|
-----------------------------|---------------------------------|
-----------------8--8--8--8--|--10--10--10--10--10-----10--10--|
-----8--8--8-----8--8--8--8--|--10--10--10--10--10-----10--10--|
-----8--8--8-----8--8--8--8--|--10--10--10--10--10-----10--10--|


                                                Interlude 1       
   E   E   E   E  E  E  E  E     E  E  E  E     W                 
------------------------------|--------------|-------------------|
------------------------------|--------------|-------------------|
------------------------------|--------------|-------------------|
--10--10--10--10--5--5--5--5--|--3--3--3--3--|--0----------------|
--10--10--10--10--5--5--5--5--|--3--3--3--3--|--0----------------|
--10--10--10--10--5--5--5--5--|--3--3--3--3--|--0----------------|


  Breakdown 1                                       
  PM          PM     PM PM     PM PM     PM PM      
  S           S  S S S  S  S S S  S  S S S  S  S S  
---------------------------------------------------|
---------------------------------------------------|
---------------------------------------------------|
---------------------------------------------------|
--0-----------0------0--0------0--0------0--0------|
--0-----------0------0--0------0--0------0--0------|


  PM PM          PM PM PM PM PM PM PM PM    PM PM     PM PM     PM PM     PM PM      
  S  S  E  E  E  S  S  S  S  S  S  S  S     S  S  S S S  S  S S S  S  S S S  S  S S  
-----------------------------------------|------------------------------------------|
-----------------------------------------|------------------------------------------|
-----------------------------------------|------------------------------------------|
-----------------------------------------|------------------------------------------|
--0--0-----------------------------------|--0--0------0--0------0--0------0--0------|
--0--0-----------8--8--8--8--8--8--8--8--|--0--0------0--0------0--0------0--0------|


  S  S S  S S  S S  S S  S S  S S  S S  S  
------------------------------------------|
------------------------------------------|
------------------------------------------|
------------------------------------------|
--7h-8-7h-8-7h-8-7h-8-4h-7-4h-7-4h-7-4h-7-|
------------------------------------------|


  PM PM     PM PM     PM PM     PM PM        PM PM          PM PM PM PM PM PM PM PM  
  S  S  S S S  S  S S S  S  S S S  S  S S    S  S  E  E  E  S  S  S  S  S  S  S  S   
------------------------------------------|-----------------------------------------|
------------------------------------------|-----------------------------------------|
------------------------------------------|-----------------------------------------|
------------------------------------------|-----------------------------------------|
--0--0------0--0------0--0------0--0------|--0--0-----------------------------------|
--0--0------0--0------0--0------0--0------|--0--0-----------8--8--8--8--8--8--8--8--|


  PM PM     PM PM     PM PM     PM PM           
  S  S  S S S  S  S S S  S  S S S  S  S S       
------------------------------------------|----|
------------------------------------------|----|
------------------------------------------|----|
------------------------------------------|----|
--0--0------0--0------0--0------0--0------|----|
--0--0------0--0------0--0------0--0------|----|


  Pre Chorus                                                        
  PM         PM PM       PM PM PM PM    PM PM PM       PM PM PM PM  
  S          S  H        S  E  S  E     S  S  H        S  E  S  E   
-------------------------------------|-----------------------------|
-------------------------------------|-----------------------------|
-------------------------------------|-----------------------------|
-------------------------------------|-----------------------------|
--0----------0--0--------0--0--0--0--|--0--0--0--------0--0--0--0--|
--0----------0--0--------0--0--0--0--|--0--0--0--------0--0--0--0--|


  PM PM PM       PM PM PM PM     PM PM PM PM PM PM PM PM              
  S  S  H        S  E  S  E      S  S  S  S  S  S  S  S  E  E  E  E   
-----------------------------|---------------------------------------|
-----------------------------|---------------------------------------|
-----------------------------|---------------------------------------|
-----------------------------|--------------------------10-----------|
--8--8--8--------8--8--8--8--|--------------------------10-----------|
--8--8--8--------8--8--8--8--|--10-10-10-10-10-10-10-10-10-----------|


  Pre Chorus                                                        
  PM         PM PM       PM PM PM PM    PM PM PM       PM PM PM PM  
  S          S  H        S  E  S  E     S  S  H        S  E  S  E   
-------------------------------------|-----------------------------|
-------------------------------------|-----------------------------|
-------------------------------------|-----------------------------|
-------------------------------------|-----------------------------|
--0----------0--0--------0--0--0--0--|--0--0--0--------0--0--0--0--|
--0----------0--0--------0--0--0--0--|--0--0--0--------0--0--0--0--|


  PM PM PM       PM PM PM PM     PM PM PM PM PM PM PM PM              
  S  S  H        S  E  S  E      S  S  S  S  S  S  S  S  E  E  E  E   
-----------------------------|---------------------------------------|
-----------------------------|---------------------------------------|
-----------------------------|---------------------------------------|
-----------------------------|--------------------------10-----------|
--8--8--8--------8--8--8--8--|--------------------------10-----------|
--8--8--8--------8--8--8--8--|--10-10-10-10-10-10-10-10-10-----------|


  Chorus                                                          
  E      E  E  E  E  E  E  E      E   E   E   E   E   E   E   E   
------------------------------|----------------------------------|
------------------------------|----------------------------------|
------------------------------|----------------------------------|
--8------8--8--8--8--8--8--8--|--10--10--10--10--10--10--10--10--|
--8------8--8--8--8--8--8--8--|--10--10--10--10--10--10--10--10--|
--8------8--8--8--8--8--8--8--|--10--10--10--10--10--10--10--10--|


  PM PM     PM PM     PM PM     PM PM      
  S  S  S S S  S  S S S  S  S S S  S  S S  
------------------------------------------|
------------------------------------------|
------------------------------------------|
------------------------------------------|
--0--0------0--0------0--0------0--0------|
--0--0------0--0------0--0------0--0------|


  PM PM     PM PM     PM PM     PM PM                                 
  S  S  S S S  S  S S S  S  S S S  S  S S    E  E  E  E  E  E  E  E   
------------------------------------------|--------------------------|
------------------------------------------|--------------------------|
------------------------------------------|--------------------------|
------------------------------------------|--8--8--8--8--8--8--8--8--|
--0--0------0--0------0--0------0--0------|--8--8--8--8--8--8--8--8--|
--0--0------0--0------0--0------0--0------|--8--8--8--8--8--8--8--8--|


                                     PM PM PM PM PM PM PM PM PM                
   E   E   E   E   E   E   E   E     S  S  S  S  S  S  S  S  S  S S S S S S S  
----------------------------------|-------------------------------------------|
----------------------------------|-------------------------------------------|
----------------------------------|-------------------------------------------|
--10--10--10--10--10--10--10--10--|-------------------------------------------|
--10--10--10--10--10--10--10--10--|--0--0--0--0--0--0--0--0--0----------------|
--10--10--10--10--10--10--10--10--|--0--0--0--0--0--0--0--0--0----------------|


  PM PM PM       PM PM PM   PM PM PM PM PM PM                             
  S  S  S  S S S S  S  S  S S  S  S  S  S  S     E  E  E  E  E  E  E  E   
----------------------------------------------|--------------------------|
----------------------------------------------|--------------------------|
----------------------------------------------|--------------------------|
----------------------------------------------|--8--8--8--8--8--8--8--8--|
--0--0--0--------0--0--0----0--0--0--0--0--0--|--8--8--8--8--8--8--8--8--|
--0--0--0--------0--0--0----0--0--0--0--0--0--|--8--8--8--8--8--8--8--8--|


   E   E   E   E   E   E   E   E     E  E  E  E  E  E  E  E   
----------------------------------|--------------------------|
----------------------------------|--------------------------|
----------------------------------|--7--7--7--7--7--7--7--7--|
--10--10--10--10--10--10--10--10--|--7--7--7--7--7--7--7--7--|
--10--10--10--10--10--10--10--10--|--5--5--5--5--5--5--5--5--|
--10--10--10--10--10--10--10--10--|--------------------------|


  E  E  E  E  E  E  E  E     E  E  E  E  E  E  E  E   
--------------------------|--------------------------|
--------------------------|--------------------------|
--------------------------|--------------------------|
--7--7--7--7--7--7--7--7--|--8--8--8--8--8--8--8--8--|
--7--7--7--7--7--7--7--7--|--8--8--8--8--8--8--8--8--|
--7--7--7--7--7--7--7--7--|--8--8--8--8--8--8--8--8--|


                                     PM PM     PM PM     PM PM     PM PM      
   E   E   E   E   E   E   E   E     S  S  S S S  S  S S S  S  S S S  S  S S  
----------------------------------|------------------------------------------|
----------------------------------|------------------------------------------|
----------------------------------|------------------------------------------|
--10--10--10--10--10--10--10--10--|------------------------------------------|
--10--10--10--10--10--10--10--10--|--0--0------0--0------0--0------0--0------|
--10--10--10--10--10--10--10--10--|--0--0------0--0------0--0------0--0------|


  PM PM     PM PM     PM PM     PM PM                                              
  S  S  S S S  S  S S S  S  S S S  S  S S    W                   W                 
------------------------------------------|-------------------|-------------------|
------------------------------------------|-------------------|-------------------|
------------------------------------------|--3----------------|--L----------------|
------------------------------------------|--3----------------|--L----------------|
--0--0------0--0------0--0------0--0------|--1----------------|--L----------------|
--0--0------0--0------0--0------0--0------|-------------------|-------------------|


                                                        Interlude 2       
  PM PM PM PM PM PM PM PM    PM PM PM PM PM PM PM PM                      
  E  E  E  E  E  E  E  E     E  E  E  E  E  E  E  E     W                 
--------------------------|--------------------------|-------------------|
--------------------------|--------------------------|-------------------|
--------------------------|--------------------------|-------------------|
--5--5--5--5--5--5--5--5--|--5--5--5--5--5--5--5--5--|--0----------------|
--3--3--3--3--3--3--3--3--|--3--3--3--3--3--3--3--3--|--0----------------|
--------------------------|--------------------------|--0----------------|


  W                   W                   W                                     
-------------------|-------------------|-------------------|-------------------|
-------------------|-------------------|-------------------|-------------------|
-------------------|-------------------|-------------------|-------------------|
--L----------------|--L----------------|--L----------------|-------------------|
--L----------------|--L----------------|--L----------------|-------------------|
--L----------------|--L----------------|--L----------------|-------------------|


-------------------|-------------------|-------------------|
-------------------|-------------------|-------------------|
-------------------|-------------------|-------------------|
-------------------|-------------------|-------------------|
-------------------|-------------------|-------------------|
-------------------|-------------------|-------------------|


  PM PM PM PM PM PM PM PM    PM PM PM PM PM PM PM PM    PM                       
  E  E  E  E  E  E  E  E     E  E  E  E  E  E  E  E     E  E  E  E  E  E  E  E   
--------------------------|--------------------------|--------------------------|
--------------------------|--------------------------|--------------------------|
--------------------------|--------------------------|--------------------------|
--------------------------|--------------------------|--------------------------|
--0--0--0--0--0--0--0--0--|--0--0--0--0--0--0--0--0--|--0-----------------------|
--0--0--0--0--0--0--0--0--|--0--0--0--0--0--0--0--0--|--0-----------------------|


        Breakdown 2                                   
        PM          PM PM PM PM PM PM PM PM           
        S           S  S  S  S  S  S  S  E  E  E  E   
-----|-----------------------------------------------|
-----|-----------------------------------------------|
-----|-----------------------------------------------|
-----|-----------------------------------------------|
-----|--0-----------0--0--0--0--0--0--0--0-----------|
-----|--0-----------0--0--0--0--0--0--0--0-----------|


              PM PM PM PM PM       PM PM PM PM PM PM PM PM PM        PM PM  
  E  E  E  E  S  S  S  S  E  E     S  S  S  S  S  S  S  S  E  E  S S S  S   
--------------------------------|------------------------------------------|
--------------------------------|------------------------------------------|
--------------------------------|------------------------------------------|
--------------------------------|------------------------------------------|
--------------0--0--0--0--0-----|--0--0--0--0--0--0--0--0--0---------0--0--|
--------------0--0--0--0--0-----|--0--0--0--0--0--0--0--0--0---------0--0--|


                                      Bridge                                      
    PM PM   PM PM PM PM               PM     PM PM PM PM       PM PM PM PM PM PM  
  S S  S  S S  S  S  S  Q     Q       S      S  S  S  E  E  E  S  S  S  S  S  S   
-----------------------------------|---------------------------------------------|
-----------------------------------|---------------------------------------------|
-----------------------------------|---------------------------------------------|
-----------------------------------|---------------------------------------------|
----0--0----0--0--0--0-------------|--0------0--0--0--0--------0--0--0--0--0--0--|
----0--0----0--0--0--0--7S----3----|--0------0--0--0--0--------0--0--0--0--0--0--|


  PM       PM PM PM PM PM PM PM       PM PM PM PM PM       PM PM PM PM PM PM  
  E  E  E  S  S  S  S  S  S  E  E     S  S  S  S  E  E  E  S  S  S  S  S  S   
-----------------------------------|-----------------------------------------|
-----------------------------------|-----------------------------------------|
-----------------------------------|-----------------------------------------|
-----------------------------------|-----------------------------------------|
--0--------0--0--0--0--0--0--0-----|--0--0--0--0--0--------0--0--0--0--0--0--|
--0--------0--0--0--0--0--0--0-----|--0--0--0--0--0--------0--0--0--0--0--0--|


  PM       PM PM PM PM PM PM PM       PM PM PM PM PM       PM PM PM PM PM PM  
  E  E  E  S  S  S  S  S  S  E  E     S  S  S  S  E  E  E  S  S  S  S  S  S   
-----------------------------------|-----------------------------------------|
-----------------------------------|-----------------------------------------|
-----------------------------------|-----------------------------------------|
-----------------------------------|-----------------------------------------|
--0--------0--0--0--0--0--0--0-----|--0--0--0--0--0--------0--0--0--0--0--0--|
--0--------0--0--0--0--0--0--0-----|--0--0--0--0--0--------0--0--0--0--0--0--|


  PM       PM PM PM PM PM PM PM       PM PM PM PM PM       PM PM PM PM PM PM  
  E  E  E  S  S  S  S  S  S  E  E     S  S  S  S  E  E  E  S  S  S  S  S  S   
-----------------------------------|-----------------------------------------|
-----------------------------------|-----------------------------------------|
-----------------------------------|-----------------------------------------|
-----------------------------------|-----------------------------------------|
--0--------0--0--0--0--0--0--0-----|--3--3--3--3--3--------3--3--3--3--3--3--|
--0--------0--0--0--0--0--0--0-----|--3--3--3--3--3--------3--3--3--3--3--3--|


  PM       PM PM PM PM PM PM PM       PM PM PM PM PM       PM PM PM PM PM PM  
  E  E  E  S  S  S  S  S  S  E  E     S  S  S  S  E  E  E  S  S  S  S  S  S   
-----------------------------------|-----------------------------------------|
-----------------------------------|-----------------------------------------|
-----------------------------------|-----------------------------------------|
-----------------------------------|-----------------------------------------|
--3--------7--7--7--7--7--7--7-----|--0--0--0--0--0--------0--0--0--0--0--0--|
--3--------7--7--7--7--7--7--7-----|--0--0--0--0--0--------0--0--0--0--0--0--|


  PM       PM PM PM PM PM PM PM       PM PM PM PM PM       PM PM PM PM PM PM  
  E  E  E  S  S  S  S  S  S  E  E     S  S  S  S  E  E  E  S  S  S  S  S  S   
-----------------------------------|-----------------------------------------|
-----------------------------------|-----------------------------------------|
-----------------------------------|-----------------------------------------|
-----------------------------------|-----------------------------------------|
--0--------0--0--0--0--0--0--0-----|--3--3--3--3--3--------3--3--3--3--3--3--|
--0--------0--0--0--0--0--0--0-----|--3--3--3--3--3--------3--3--3--3--3--3--|


  PM       PM PM PM PM PM PM PM       PM PM PM PM PM       PM PM PM PM PM PM  
  E  E  E  S  S  S  S  S  S  E  E     S  S  S  S  E  E  E  S  S  S  S  S  S   
-----------------------------------|-----------------------------------------|
-----------------------------------|-----------------------------------------|
-----------------------------------|-----------------------------------------|
-----------------------------------|-----------------------------------------|
--3--------7--7--7--7--7--7--7-----|--1--1--1--1--1--------1--1--1--1--1--1--|
--3--------7--7--7--7--7--7--7-----|--0--0--0--0--0--------0--0--0--0--0--0--|


  PM       PM PM PM PM PM PM PM       PM PM PM PM PM       PM PM PM PM PM PM  
  E  E  E  S  S  S  S  S  S  E  E     S  S  S  S  E  E  E  S  S  S  S  S  S   
-----------------------------------|-----------------------------------------|
-----------------------------------|-----------------------------------------|
-----------------------------------|-----------------------------------------|
-----------------------------------|-----------------------5--5--5--5--5--5--|
--1--------1--1--1--1--1--1--1-----|--3--3--3--3--3--------3--3--3--3--3--3--|
--0--------0--0--0--0--0--0--0-----|--0--0--0--0--0--------------------------|


                                     Interlude 3       
           PM PM PM PM PM PM                           
  E  E  E  S  S  S  S  S  S  Q       W                 
----------------------------------|-------------------|
----------------------------------|-------------------|
----------------------------------|-------------------|
--7-------------------------------|-------------------|
--5--------5--5--5--5--5--5--0----|-------------------|
----------------------------------|-------------------|


  Chorus                                                          
  E      E  E  E  E  E  E  E      E   E   E   E   E   E   E   E   
------------------------------|----------------------------------|
------------------------------|----------------------------------|
------------------------------|----------------------------------|
--8------8--8--8--8--8--8--8--|--10--10--10--10--10--10--10--10--|
--8------8--8--8--8--8--8--8--|--10--10--10--10--10--10--10--10--|
--8------8--8--8--8--8--8--8--|--10--10--10--10--10--10--10--10--|


  PM PM     PM PM     PM PM     PM PM      
  S  S  S S S  S  S S S  S  S S S  S  S S  
------------------------------------------|
------------------------------------------|
------------------------------------------|
------------------------------------------|
--0--0------0--0------0--0------0--0------|
--0--0------0--0------0--0------0--0------|


  PM PM     PM PM     PM PM     PM PM                                 
  S  S  S S S  S  S S S  S  S S S  S  S S    E  E  E  E  E  E  E  E   
------------------------------------------|--------------------------|
------------------------------------------|--------------------------|
------------------------------------------|--------------------------|
------------------------------------------|--8--8--8--8--8--8--8--8--|
--0--0------0--0------0--0------0--0------|--8--8--8--8--8--8--8--8--|
--0--0------0--0------0--0------0--0------|--8--8--8--8--8--8--8--8--|


                                     PM PM PM PM PM PM PM PM PM                
   E   E   E   E   E   E   E   E     S  S  S  S  S  S  S  S  S  S S S S S S S  
----------------------------------|-------------------------------------------|
----------------------------------|-------------------------------------------|
----------------------------------|-------------------------------------------|
--10--10--10--10--10--10--10--10--|-------------------------------------------|
--10--10--10--10--10--10--10--10--|--0--0--0--0--0--0--0--0--0----------------|
--10--10--10--10--10--10--10--10--|--0--0--0--0--0--0--0--0--0----------------|


  PM PM PM       PM PM PM   PM PM PM PM PM PM                             
  S  S  S  S S S S  S  S  S S  S  S  S  S  S     E  E  E  E  E  E  E  E   
----------------------------------------------|--------------------------|
----------------------------------------------|--------------------------|
----------------------------------------------|--------------------------|
----------------------------------------------|--8--8--8--8--8--8--8--8--|
--0--0--0--------0--0--0----0--0--0--0--0--0--|--8--8--8--8--8--8--8--8--|
--0--0--0--------0--0--0----0--0--0--0--0--0--|--8--8--8--8--8--8--8--8--|


   E   E   E   E   E   E   E   E     E  E  E  E  E  E  E  E   
----------------------------------|--------------------------|
----------------------------------|--------------------------|
----------------------------------|--7--7--7--7--7--7--7--7--|
--10--10--10--10--10--10--10--10--|--7--7--7--7--7--7--7--7--|
--10--10--10--10--10--10--10--10--|--5--5--5--5--5--5--5--5--|
--10--10--10--10--10--10--10--10--|--------------------------|


  E  E  E  E  E  E  E  E     E  E  E  E  E  E  E  E   
--------------------------|--------------------------|
--------------------------|--------------------------|
--------------------------|--------------------------|
--7--7--7--7--7--7--7--7--|--8--8--8--8--8--8--8--8--|
--7--7--7--7--7--7--7--7--|--8--8--8--8--8--8--8--8--|
--7--7--7--7--7--7--7--7--|--8--8--8--8--8--8--8--8--|


                                     PM PM     PM PM     PM PM     PM PM      
   E   E   E   E   E   E   E   E     S  S  S S S  S  S S S  S  S S S  S  S S  
----------------------------------|------------------------------------------|
----------------------------------|------------------------------------------|
----------------------------------|------------------------------------------|
--10--10--10--10--10--10--10--10--|------------------------------------------|
--10--10--10--10--10--10--10--10--|--0--0------0--0------0--0------0--0------|
--10--10--10--10--10--10--10--10--|--0--0------0--0------0--0------0--0------|


  PM PM     PM PM     PM PM     PM PM                           
  S  S  S S S  S  S S S  S  S S S  S  S S    W                  
------------------------------------------|-------------------||
------------------------------------------|-------------------||
------------------------------------------|-------------------||
------------------------------------------|--0----------------||
--0--0------0--0------0--0------0--0------|--0----------------||
--0--0------0--0------0--0------0--0------|--0----------------||

Lead Guitar

Lead Guitar



                                           |---3---|         
      E.  E.  E  Q     Q       E  E  E  E  E   E   E  E  E   
D#||--5---------------------|-------------------------------|
A#||-------------8----13----|--L--6--5-----5h--6p--5--------|
F#||------7---5-------------|-----------7-------------7--5--|
C#||------------------------|-------------------------------|
G#||------------------------|-------------------------------|
C#||------------------------|-------------------------------|


                                       |---3---|         
  E.  E.  E  Q     Q       E  E  E  E  E   E   E  E  E   
--5---------------------|-------------------------------|
-------------8----13----|--L--6--5-----5h--6p--5--------|
------7---5-------------|-----------7-------------7--5--|
------------------------|-------------------------------|
------------------------|-------------------------------|
------------------------|-------------------------------|


   Q.        E  E   E   E   E      E   E   E   E   E   E   E   E   
--12br---------------------10--|--13--10----------10--13--10------|
------------10--8--10--13------|----------10--13--------------13--|
-------------------------------|----------------------------------|
-------------------------------|----------------------------------|
-------------------------------|----------------------------------|
-------------------------------|----------------------------------|


   Q.        E  E   E  E   E     E  E  E  E  E  E  E  E     E.  E.  E  Q     Q     
--12br-----------------8------|--------------------------|--5---------------------|
------------10--8--10-----10--|-----5--6--5--6--5--------|-------------8----13----|
------------------------------|--------------------7--5--|------7---5-------------|
------------------------------|--------------------------|------------------------|
------------------------------|--------------------------|------------------------|
------------------------------|--------------------------|------------------------|


              |---3---|                                  
  E  E  E  E  E   E   E  E  E     E.  E.  E  Q     Q     
-------------------------------|--5---------------------|
--L--6--5-----5h--6p--5--------|-------------8----13----|
-----------7-------------7--5--|------7---5-------------|
-------------------------------|------------------------|
-------------------------------|------------------------|
-------------------------------|------------------------|


              |---3---|                                         
  E  E  E  E  E   E   E  E  E      Q.        E  E   E   E   E   
-------------------------------|--12br---------------------10--|
--L--6--5-----5h--6p--5--------|------------10--8--10--13------|
-----------7-------------7--5--|-------------------------------|
-------------------------------|-------------------------------|
-------------------------------|-------------------------------|
-------------------------------|-------------------------------|


   E   E   E   E   E   E   E   E      Q.        E  E   E  E   E   
--13--10----------10--13--10------|--12br-----------------8------|
----------10--13--------------13--|------------10--8--10-----10--|
----------------------------------|------------------------------|
----------------------------------|------------------------------|
----------------------------------|------------------------------|
----------------------------------|------------------------------|


  E  E  E  E  E  E  E  E     E  E  E  E     W                                     
--------------------------|--5-----------|-------------------|-------------------|
-----5--6--5--6--5--------|-----8--6--5--|-------------------|-------------------|
--------------------7--5--|--------------|--7----------------|-------------------|
--------------------------|--------------|-------------------|-------------------|
--------------------------|--------------|-------------------|-------------------|
--------------------------|--------------|-------------------|-------------------|


                                          S  S S  S S  S S  S S  S S  S S  S S  S  
-------------------|-------------------|------------------------------------------|
-------------------|-------------------|------------------------------------------|
-------------------|-------------------|------------------------------------------|
-------------------|-------------------|------------------------------------------|
-------------------|-------------------|--8p-7-8p-7-8p-7-8p-7-7p-4-7p-4-7p-4-7p-4-|
-------------------|-------------------|------------------------------------------|


                       E   E   E   E   E   E   E   E   
----|----|----|----|----------------------------------|
----|----|----|----|----------------------------------|
----|----|----|----|--10--10--10--10--10--10--10--10--|
----|----|----|----|----------------------------------|
----|----|----|----|---8---8---8---8---8---8---8---8--|
----|----|----|----|----------------------------------|


   E   E   E   E   E   E   E   E      E   E   E   E   E   E   E   E   
----------------------------------|----------------------------------|
----------------------------------|----------------------------------|
--14--14--14--14--12--12--12--12--|--10--10--10--10--10--10--10--10--|
----------------------------------|----------------------------------|
--12--12--12--12--10--10--10--10--|---8---8---8---8---8---8---8---8--|
----------------------------------|----------------------------------|


  E  E  E  E  E  E  E  E      E   E   E   E   E   E   E   E   
--------------------------|----------------------------------|
--------------------------|----------------------------------|
--9--9--9--9--9-----------|--10--10--10--10--10--10--10--10--|
--------------------------|----------------------------------|
--7--7--7--7--7-----------|---8---8---8---8---8---8---8---8--|
--------------------------|----------------------------------|


   E   E   E   E   E   E   E   E      E   E   E   E   E   E   E   E   
----------------------------------|----------------------------------|
----------------------------------|----------------------------------|
--14--14--14--14--12--12--12--12--|--10--10--10--10--10--10--10--10--|
----------------------------------|----------------------------------|
--12--12--12--12--10--10--10--10--|---8---8---8---8---8---8---8---8--|
----------------------------------|----------------------------------|


  E  E  E  E  E  E  E  E      E.  E.   E  E   E  E   E   
--------------------------|--10---8-------8-------------|
--------------------------|-----------10-----10--8--10--|
--9--9--9--9--------------|-----------------------------|
--------------------------|-----------------------------|
--7--7--7--7--------------|-----------------------------|
--------------------------|-----------------------------|


   E.  E.   E  E   E  E   E     E.   E.  E  E   E  E  E   
--10---8-------8-------------|--------------8--10--5--8--|
-----------10-----10--8--10--|---------------------------|
-----------------------------|--9---10---7---------------|
-----------------------------|---------------------------|
-----------------------------|---------------------------|
-----------------------------|---------------------------|


  E.   E.  E  E   E  E  E      E.  E.   E  E   E  E   E   
--------------8--10--8--5--|--10---8-------8-------------|
---------------------------|-----------10-----10--8--10--|
--9---10---7---------------|-----------------------------|
---------------------------|-----------------------------|
---------------------------|-----------------------------|
---------------------------|-----------------------------|


   E.  E.   E  E   E  E   E     E.   E.  E  E   E  E  E   
--10---8-------8-------------|--------------8--10--5--8--|
-----------10-----10--8--10--|---------------------------|
-----------------------------|--9---10---7---------------|
-----------------------------|---------------------------|
-----------------------------|---------------------------|
-----------------------------|---------------------------|


  E.   E.  E  E   E  E  E      E.  E.   E  E   E  E   E   
--------------8--10--8--5--|--10---8-------8-------------|
---------------------------|-----------10-----10--8--10--|
--9---10---7---------------|-----------------------------|
---------------------------|-----------------------------|
---------------------------|-----------------------------|
---------------------------|-----------------------------|


   E.  E.   E  E   E  E   E     E.   E.  E  E   E  E  E   
--10---8-------8-------------|--------------8--10--5--8--|
-----------10-----10--8--10--|---------------------------|
-----------------------------|--9---10---7---------------|
-----------------------------|---------------------------|
-----------------------------|---------------------------|
-----------------------------|---------------------------|


  E.   E.  E  E   E  E  E      E.  E.   E  E   E  E   E   
--------------8--10--8--5--|--10---8-------8-------------|
---------------------------|-----------10-----10--8--10--|
--9---10---7---------------|-----------------------------|
---------------------------|-----------------------------|
---------------------------|-----------------------------|
---------------------------|-----------------------------|


   E.  E.   E  E   E  E   E     E.   E.  E  E   E  E  E   
--10---8-------8-------------|--------------8--10--5--8--|
-----------10-----10--8--10--|---------------------------|
-----------------------------|--9---10---7---------------|
-----------------------------|---------------------------|
-----------------------------|---------------------------|
-----------------------------|---------------------------|


  E.   E.  E  E   E  E  E      E   E   E   E   E   E   E   E   
--------------8--10--8--5--|--10------10----------13--10------|
---------------------------|------13------13--10----------13--|
--9---10---7---------------|----------------------------------|
---------------------------|----------------------------------|
---------------------------|----------------------------------|
---------------------------|----------------------------------|


   E   E   E   E   E   E   E   E      E   E   E   E   E   E   E   E   
--10----------13--10--------------|--10------10----------13--10------|
------13--10----------13--10--11--|------13------13--10----------13--|
----------------------------------|----------------------------------|
----------------------------------|----------------------------------|
----------------------------------|----------------------------------|
----------------------------------|----------------------------------|


   E   E   E   E   E   E   E   E      W                   W                       
--10----------13--10--------------|--10----------------|--L----------------|-----|
------13--10----------13--10--11--|--------------------|-------------------|-----|
----------------------------------|--------------------|-------------------|-----|
----------------------------------|--------------------|-------------------|-----|
----------------------------------|--------------------|-------------------|-----|
----------------------------------|--------------------|-------------------|-----|


-----|-----|-----|-----|-----|-----|-----|-----|-----|-----|-----|-----|-----|-----|
-----|-----|-----|-----|-----|-----|-----|-----|-----|-----|-----|-----|-----|-----|
-----|-----|-----|-----|-----|-----|-----|-----|-----|-----|-----|-----|-----|-----|
-----|-----|-----|-----|-----|-----|-----|-----|-----|-----|-----|-----|-----|-----|
-----|-----|-----|-----|-----|-----|-----|-----|-----|-----|-----|-----|-----|-----|
-----|-----|-----|-----|-----|-----|-----|-----|-----|-----|-----|-----|-----|-----|


                    E   E   E   E   E   E    E   E      E   E   H.                  
-----|-----|-----|------------------------------12--|--13--12----------------|-----|
-----|-----|-----|---------13--15--13---------------|------------------------|-----|
-----|-----|-----|-----10--------------12s--14------|----------14------------|-----|
-----|-----|-----|----------------------------------|------------------------|-----|
-----|-----|-----|----------------------------------|------------------------|-----|
-----|-----|-----|----------------------------------|------------------------|-----|


        E   E   E   E   E   E    E   E      E   E   H.                        
-----|------------------------------12--|--13--12----------------|-----|-----|
-----|---------13--15--13---------------|------------------------|-----|-----|
-----|-----10--------------12s--14------|----------14------------|-----|-----|
-----|----------------------------------|------------------------|-----|-----|
-----|----------------------------------|------------------------|-----|-----|
-----|----------------------------------|------------------------|-----|-----|


  E   E   E   E   E   E    E   E      E   E   H.                              
------------------------------12--|--13--12----------------|-----|-----|-----|
---------13--15--13---------------|------------------------|-----|-----|-----|
-----10--------------12s--14------|----------14------------|-----|-----|-----|
----------------------------------|------------------------|-----|-----|-----|
----------------------------------|------------------------|-----|-----|-----|
----------------------------------|------------------------|-----|-----|-----|


   E.  E.   E  E   E  E   E      E.  E.   E  E   E  E   E   
--10---8-------8-------------|--10---8-------8-------------|
-----------10-----10--8--10--|-----------10-----10--8--10--|
-----------------------------|-----------------------------|
-----------------------------|-----------------------------|
-----------------------------|-----------------------------|
-----------------------------|-----------------------------|


  E.   E.  E  E   E  E  E     E.   E.  E  E   E  E  E   
--------------8--10--5--8--|--------------8--10--8--5--|
---------------------------|---------------------------|
--9---10---7---------------|--9---10---7---------------|
---------------------------|---------------------------|
---------------------------|---------------------------|
---------------------------|---------------------------|


   E.  E.   E  E   E  E   E      E.  E.   E  E   E  E   E   
--10---8-------8-------------|--10---8-------8-------------|
-----------10-----10--8--10--|-----------10-----10--8--10--|
-----------------------------|-----------------------------|
-----------------------------|-----------------------------|
-----------------------------|-----------------------------|
-----------------------------|-----------------------------|


  E.   E.  E  E   E  E  E     E.   E.  E  E   E  E  E   
--------------8--10--5--8--|--------------8--10--8--5--|
---------------------------|---------------------------|
--9---10---7---------------|--9---10---7---------------|
---------------------------|---------------------------|
---------------------------|---------------------------|
---------------------------|---------------------------|


   E.  E.   E  E   E  E   E      E.  E.   E  E   E  E   E   
--10---8-------8-------------|--10---8-------8-------------|
-----------10-----10--8--10--|-----------10-----10--8--10--|
-----------------------------|-----------------------------|
-----------------------------|-----------------------------|
-----------------------------|-----------------------------|
-----------------------------|-----------------------------|


  E.   E.  E  E   E  E  E     E.   E.  E  E   E  E  E   
--------------8--10--5--8--|--------------8--10--8--5--|
---------------------------|---------------------------|
--9---10---7---------------|--9---10---7---------------|
---------------------------|---------------------------|
---------------------------|---------------------------|
---------------------------|---------------------------|


   E.  E.   E  E   E  E   E      E.  E.   E  E   E  E   E   
--10---8-------8-------------|--10---8-------8-------------|
-----------10-----10--8--10--|-----------10-----10--8--10--|
-----------------------------|-----------------------------|
-----------------------------|-----------------------------|
-----------------------------|-----------------------------|
-----------------------------|-----------------------------|


  E.   E.  E  E   E  E  E     E.   E.  E  E   E  E  E          
--------------8--10--5--8--|--------------8--10--8--5--|-----||
---------------------------|---------------------------|-----||
--9---10---7---------------|--9---10---7---------------|-----||
---------------------------|---------------------------|-----||
---------------------------|---------------------------|-----||
---------------------------|---------------------------|-----||




Duration Legend
---------------
W - whole
H - half
Q - quarter
E - 8th
S - 16th
T - 32nd
X - 64th
. - note dotted
|-n-|  - n-tuplets


Tablature Legend
----------------
L - tied note
x - dead note
g - grace note
(n) - ghost note
> - accentuded note
NH - natural harmonic
AH - artificial harmonic
TH - tapped harmonic
SH - semi harmonic
PH - pitch harmonic
h - hammer on
p - pull off
b - bend
br - bendRelease
pb - preBend
pbr - preBendRelease
brb - bendReleaseBend
\n/ - tremolo bar dip
\n - tremolo bar dive
-/n - tremolo bar Release up
/n\ - tremolo bar inverted dip
/n - tremolo bar return
-\n - tremolo bar Release down
S - shift slide
s - legato slide
/ -  slide into from below or out of upwards
\ -  slide into from above or out of downwards
~ - vibrato
W - wide vibrato
tr - trill
TP - tremolo picking
T - tapping
S - slap
P - pop
< - fade in
^ - brush up
v - brush down
Tap to rate this tab
# A B C D E F G H I J K L M N O P Q R S T U V W X Y Z