Song name
# A B C D E F G H I J K L M N O P Q R S T U V W X Y Z

Hands Like Houses - Introduced Species tab

Tuning: Drop C (CGCFAD) Low to High
Tabbed by: BAILEY2K

Intro Lead
D|-----------------------------------|
A|-----------13/15-------------------|
F|----10-----------14----------------|
C|-12---12------------12-12h14-12----| 1st Time
G|-----------------------------------|
C|-----------------------------------|

D|-------------------------------------|
A|------------13/15--------------------|
F|----10---10--------14----------------|
C|-12---12--------------12-12h14-12----|  3 times
G|-------------------------------------|
C|-------------------------------------|

Verse (Figure out amount of times per note. Timing is easy. 10's NOT 1's and 0's)
D|--------------------------------------------------------|
A|--------------------------------------------------------|
F|--------------------------------------------------------| 1st time
C|--------------------------------------------------------|
G|--------------------------------------------------------|
C|-000000000-3333333333-2222222222-88888888-101010101010--|

D|---------------------------------------------|
A|---------------------------------------------|
F|---------------------------------------------| 2nd time
C|------------------------------------8~--10~--|
G|------------------------------------8~--10~--|
C|-0000000000-3333333333-2222222222---8~--10~--|

Chorus (Figure out strumming pattern. 12's and 10's. NOT 1's and 2's etc.)
D|-------------------------------------------------------|
A|-------------------------------------------------------|
F|-------------------------------------------------------|
C|-888888888-12121212121212-101010101010-12121212121212--| 2 times
G|-888888888-12121212121212-101010101010-12121212121212--|
C|-888888888-12121212121212-101010101010-12121212121212--|

D|-8h10p8--------------8h10p8--------------------------------------------|
A|--------10--8--10------------10--8--10----------------8--10--8---------|
F|-------------------7--------------------9~---7--9--10-----------10--9~-|
C|-----------------------------------------------------------------------|
G|-----------------------------------------------------------------------|
C|-----------------------------------------------------------------------|

D|-8h10p8---------------8h10p8--12b-----------------------------------------|
A|---------10--8--10------------------13--10------------8--10--8------------|
F|--------------------7------------------------7--9--10-----------10--9--7~-|
C|--------------------------------------------------------------------------|
G|--------------------------------------------------------------------------|
C|--------------------------------------------------------------------------|

Intro
Verse
Chorus

Bridge (Not exactly like the song but its how i play it)
D|---------------------------------------------------|
A|-----------------------------------------6---------|
F|-12-14-12-10-12-10-9-10-7~--5~------5-7----9-7-5---|
C|---------------------------------5-7---------------|
G|---------------------------------------------------|
C|---------------------------------------------------|

Chorus

Outro
D|----------------------|
A|-8/10--8--------------|
F|----------10--9--7~---|
C|----------------------|
G|----------------------|
C|----------------------|
Tap to rate this tab
# A B C D E F G H I J K L M N O P Q R S T U V W X Y Z