Song name
# A B C D E F G H I J K L M N O P Q R S T U V W X Y Z

Hands Like Houses - A Fire On A Hill tab

INTRO (part 1)

Electric 1
Clean
E|-17----------------------15-13----13----20h22h22h22h22-24-|
B|----17-13-17----------15-------17----14-------------------|
G|-------------14-14-17-------------------------------------|
D|----------------------------------------------------------| x2
A|----------------------------------------------------------|
D|----------------------------------------------------------|

INTRO (part 2)

Electric 1

E|---------------------------------------------------|
B|-10---------------/12-10-----/15-17-13-15-12h13h13-|
G|----9-7-9------x2--------9-7-----------------------|
D|----------7-10-------------------------------------| x2
A|---------------------------------------------------|
D|---------------------------------------------------|

Electric 2

E|-----    ---------------------|
B|-----    ---------------------|
G|-----    ---------------------|
D|-2-3-    --7-2-3-5-2----12-14-|
A|-2-3-    --7-2-3-5-2-x2-12-14-|
D|-2-3-    --7-2-3-5-2----12-14-|

VERSE (part 1)

Electric 2
Clean
E|-----------|
B|-----------|
G|-14-12-7-9-|
D|-14-12-7-9-|
A|-12-10-5-7-|
D|-----------|

VERSE (part 2)

Electric 1

E|------------------------------------|
B|-12-13---12-15----------12-------12-|
G|-------9-------12-------------------|
D|------------------12-14----12-14----|
A|------------------------------------|
D|------------------------------------|

Electric 2
Clean
E|-----------|
B|-----------|
G|-14-12-7-9-|
D|-14-12-7-9-|
A|-12-10-5-7-|
D|-----------|

PRE-CHORUS

Electric 1

E|----------------------------------|
B|----------------------------------|
G|-------------12-------------16-12-|
D|-12h14r12-10----12h14r12-10-------| x2
A|----------------------------------|
D|----------------------------------|

Electric 2

E|----------|
B|----------|
G|----------|
D|-10-14-12-|
A|-10-14-12-|
D|-10-14-12-|

CHORUS

Electric 1

E|-------------------------------------|
B|-12h13r12----------------8-10--------|
G|----------12-12-9-7-9---------7-9-9--|
D|----------------------10-------------|
A|-------------------------------------|
D|-------------------------------------|


------------------------------------------|
--12h13r12---------------12h13h13h13///20-|
-----------12-12-9-7h9h9------------------|
------------------------------------------|
------------------------------------------|
------------------------------------------|

Electric 2

E|---------------|
B|---------------|
G|---------------|
D|-10-7-2-10-7-3-|
A|-10-7-2-10-7-3-|
D|-10-7-2-10-7-3-|

POST

Electric 1
(hold really long)
E|----------|
B|-20-18-17-|
G|----------|
D|----------|
A|----------|
D|----------|

VERSE (part 1)

Electric 2

E|-----------|
B|-----------|
G|-12-12-7-9-|
D|-12-12-7-9-|
A|-10-10-5-7-|
D|-----------|

VERSE (part 2)

Electric 1

E|----------------------------|
B|-12-10-12-10----------------|
G|-------------9-12-9-12-9----|
D|-------------------------12-|
A|----------------------------|
D|----------------------------|

Electric 2
(1 strum each)
E|------|
B|------|
G|-14-7-|
D|-14-7-|
A|-12-5-|
D|------|

PRE-CHORUS

CHORUS

POST

INTRO (part 1)

PRE-BRIDGE

Electric 1+2

E|-----|
B|-----|
G|-----|
D|-2-3-|
A|-2-3-|
D|-2-3-|

BRIDGE

Electric 2

E|----------|
B|----------|
G|----------|
D|-10-7-2-3-|
A|-10-7-2-3-|
D|-10-7-2-3-|

CHORUS (with Electric 1 variation)

Electric 1

E|-------------|
B|-88-55----55-|
G|-------77----|
D|-------------|
A|-------------|
D|-------------|
Tap to rate this tab
# A B C D E F G H I J K L M N O P Q R S T U V W X Y Z