Song name
# A B C D E F G H I J K L M N O P Q R S T U V W X Y Z

Hands Like Houses - Introduced Species tab

Tuning: Drop C (CGCFAD) Low to High
Tabbed by: warlordscar0

Intro Lead
D|------------------------------------|
A|----------13/15---------------------|
F|---10--10--------14~--12-12h14-12---|
C|-12--12-----------------------------| (x4)
G|------------------------------------|
C|------------------------------------|

Intro Rhythm
D|---------------------------------------------------------|
A|---------------------------------------------------------|
F|---------------------------------------------------------|
C|---------------------------------------------------------|
G|0-000-0-0-0-0--10-10-10-10--8-888-8-8-8-8-888-10-10-10-10|
C|0-000-0-0-0-0--10-10-10-10--8-888-8-8-8-8-888-10-10-10-10|  (x2)
  * *** * * * *  *  *  *  *   * *** * * * *  *  *  *  *

"Wake up, walk on the wires, defeat and define"
D|----------------|   |----------------|
A|----------------|   |----------------|
F|----------------|   |----------------|
C|----------------| - |---------8~-10~-|
G|----------------|   |---------8~-10~-|
C|0"-3"-2"-8"\10"-|   |0"-3"-2"-8~-10~-|

Chorus
D|--------------------------------------------|
A|--------------------------------------------|
F|--------------------------------------------|
C|8-8-8-8-12-12-12-12-10-10-10-10-10-10-12-12-|
G|8-8-8-8-12-12-12-12-10-10-10-10-10-10-12-12-|
C|8-8-8-8-12-12-12-12-10-10-10-10-10-10-12-12-|

Chorus(Lead)
D|10-8-------------10-8----------------------------------|
A|-----10-8~-6----------10-8~-10-------------10----------|
F|-------------7----------------9~-7-9-10-12----12-10----|
C|----------------------------------------------------12-|
G|-------------------------------------------------------|
C|-------------------------------------------------------|

D|10-8-------------10-8----13p12------------------------------|
A|-----10-8~-6----------10-------13-10~-----------10----------|
F|-------------7------------------------7-9-10-12----12-10----|
C|---------------------------------------------------------12-|
G|------------------------------------------------------------|
C|------------------------------------------------------------|
Tap to rate this tab
# A B C D E F G H I J K L M N O P Q R S T U V W X Y Z