Song name
# A B C D E F G H I J K L M N O P Q R S T U V W X Y Z

Hands Like Houses - Developments tab

-----------------------------------------------------------------------------------
                             Developments - Hands Like Houses
-----------------------------------------------------------------------------------
Tabbed by: Drew Watt
C#-mail: ajwatt77@gmail. com

Tuning: Drop C#

        (Lead-Intro)
D#|--5b7--0---3---0---5b7---0---3---0--------------------------------------10-------|
G#|-----------------------------------------5b7--3---0---5b7---3---0---10-------10--|
F#|---------------------------------------------------------------------------------|
C#|---------------------------------------------------------------------------------|
G#|---------------------------------------------------------------------------------|
C#|---------------------------------------------------------------------------------|

D#|--5b7--0--3--0---5b7--0--3--0------10-----------------------------------------10-----|
G##|---------------------------------------------10---12---10---7--8--7-------------10--|
F#|-----------------------------------------------------------------------7--9--7-------|
C#|-------------------------------------------------------------------------------------|
G#|-------------------------------------------------------------------------------------|
C#|-------------------------------------------------------------------------------------|

D#|--5b7--0---3---0---5b7---0---3---0--------------------------------------10-------|
G#|-----------------------------------------5b7--3---0---5b7---3---0---10-------10--|
F#|---------------------------------------------------------------------------------|
C#|---------------------------------------------------------------------------------|
G#|---------------------------------------------------------------------------------|
C#|---------------------------------------------------------------------------------|

D#|--5b7--0--3--0---5b7--0--3--0------10---------------------------------------10------|
G#|---------------------------------------------10---12---10---7--8--7-------------10--|
F#|---------------------------------------------------------------------7--9--7--------|
C#|------------------------------------------------------------------------------------|
G#|------------------------------------------------------------------------------------|
C#|------------------------------------------------------------------------------------|

D#|---------------------------------------------------------------|
G#|--8--10--12------5--8--10------3--5--7------3--5--7--0-----4~--|
F#|---------------------------------------------------------------|
C#|---------------------------------------------------------------|
G#|---------------------------------------------------------------|
C#|---------------------------------------------------------------|

        (Verse) Only bass/keyboard/drums play here

        (Lead - Pre chorus)
D#|--------10--------------------------------------------------------|
G#|-----8------------------------------------------------------------|
F#|--9---------11---12--11---9-----------------------------------X4--|
C#|--------------------------------12--------------------------------|
G#|------------------------------------------------------------------|
C#|------------------------------------------------------------------|

        (Lead- Chorus)
D#|------------------------------------------------------------|
G#|------------------------------------------------------------|
F#|--9---7---9---7---------9---7---9--7---------------------7--|
C#|-------------------9--7-----------------9--7---4---5---4----|
G#|------------------------------------------------------------|
C#|------------------------------------------------------------|

D#|---------------------------------------------|
G#|--15--15---10--10---7--7---3---5---3---------|
F#|------------------------------------------4--|
C#|---------------------------------------------|
G#|---------------------------------------------|
C#|---------------------------------------------|

D#|------------------------------------------------------------|
G#|------------------------------------------------------------|
F#|--9---7---9---7---------9---7---9--7---------------------7--|
C#|-----------------9--7---------------9--7---4---5---4--------|
G#|------------------------------------------------------------|
C#|------------------------------------------------------------|

D#|---------------------------------------------|
G#|--15--15---10--10---7--7---3---5---3----3----|
F#|------------------------------------------4--|
C#|---------------------------------------------|
G#|---------------------------------------------|
C#|---------------------------------------------|

D#|------------------------------------------------------------------------------|
G#|--17---15---17---15-------------17---15---17---15-----------------------------|
F#|------------------------16---14------------------------16---14---11---12---9--|
C#|------------------------------------------------------------------------------|
G#|------------------------------------------------------------------------------|
C#|------------------------------------------------------------------------------|

D#|-----------------------------------------------|
G#|--15--15---10--10---7--7---3---5---3-----3-----|
F#|--------------------------------------------4--|
C#|-----------------------------------------------|
G#|-----------------------------------------------|
C#|-----------------------------------------------|

D#|------------------------------------------------------------------------------|
G#|--17---15---17---15-------------17---15---17---15-----------------------------|
F#|------------------------16---14------------------------16---14---11---12---9--|
C#|------------------------------------------------------------------------------|
G#|------------------------------------------------------------------------------|
C#|------------------------------------------------------------------------------|

D#|-----------------------------------------------------|
G#|--15--15---10--10---7--7---3---5---3------------14~--|
F#|--------------------------------------------4--------|
C#|-----------------------------------------------------|
G#|-----------------------------------------------------|
C#|-----------------------------------------------------|

        (Lead- Verse 2)
D#|-------------------------------------------------------------|
G#|-------------------------------------------------------------|
F#|-------------------------------------------------------------|
C#|-------------------------------------------------------------|
G#|--10--X12----0--X12---2--X12---5--X12----10~---0~---2~---5~--|
C#|--10---------0--------2--------5---------10~---0~---2~---5~--|

D#|--10/15---20\14------10/15--20\14--|
G#|-----------------------------------|
F#|-----------------------------------|
C#|-----------------------------------|
G#|-----------------------------------|
C#|-----------------------------------|

        (Chorus)

        (Lead- Bridge)
D#|---------------------------------------|
G#|---------------------------------------|
F#|---------------------------------------|
C#|---------------------------------------|
G#|--10--10---10~------2~---0~---5~---X4--|
C#|--10--10---10~------2~---0~---5~-------|

        (Lead- Chorus)
 This chorus uses some sort of delays, but play around with this.
 You can get the general sound.
D#|--------------------------------------------------------|
G#|--------------------------------------------------------|
F#|--7---9---7---4---7-----7-------------------------------|
C#|-----------------------9---------7---9---7---5---7---5--|
G#|--------------------------------------------------------|
C#|--------------------------------------------------------|

D#|-------------------------------------------------------------------------|
G#|-------------------------------------------------------------------------|
F#|--7---9---7---4---7-----7------15--15---10----------------7--9--7-----7--|
C#|----------------------9---------------------11--12--14-------------9-----|
G#|-------------------------------------------------------------------------|
C#|-------------------------------------------------------------------------|

D#|------------------------------------------------------------|
G#|------------------------------------------------------------|
F#|--9---7---9---7---------9---7---9--7---------------------7--|
C#|-------------------9--7-----------------9--7---4---5---4----|
G#|------------------------------------------------------------|
C#|------------------------------------------------------------|

D#|----------------------------------------------|
G#|--15--15---10--10---7--7---3---5---3----------|
F#|-------------------------------------------4--|
C#|----------------------------------------------|
G#|----------------------------------------------|
C#|----------------------------------------------|

D#|------------------------------------------------------------|
G#|------------------------------------------------------------|
F#|--9---7---9---7---------9---7---9--7---------------------7--|
C#|-------------------9--7-----------------9--7---4---5---4----|
G#|------------------------------------------------------------|
C#|------------------------------------------------------------|

D#|---------------------------------------|
G#|--15--15---10--10---7--7---3---5---3/--|
F#|---------------------------------------|
C#|---------------------------------------|
G#|---------------------------------------|
C#|---------------------------------------|

D#|------------------------------------------------------------------------------|
G#|--17---15---17---15-------------17---15---17---15-----------------------------|
F#|------------------------16---14------------------------16---14---11---12---9--|
C#|------------------------------------------------------------------------------|
G#|------------------------------------------------------------------------------|
C#|------------------------------------------------------------------------------|

D#|-----------------------------------------------|
G#|--15--15---10--10---7--7---3---5---3-----------|
F#|--------------------------------------------4--|
C#|-----------------------------------------------|
G#|-----------------------------------------------|
C#|-----------------------------------------------|

D#|------------------------------------------------------------------------------|
G#|--17---15---17---15-------------17---15---17---15-----------------------------|
F#|------------------------16---14------------------------16---14---11---12---9--|
C#|------------------------------------------------------------------------------|
G#|------------------------------------------------------------------------------|
C#|------------------------------------------------------------------------------|

D#|------------------------------------------------------|
G#|--15--15---10--10---7--7---3---5---3-------------14~--|
F#|--------------------------------------------4---------|
C#|------------------------------------------------------|
G#|------------------------------------------------------|
C#|------------------------------------------------------|

This is the first tab I have ever tabbed out, so bare with me.
 There are several parts that are hard to hear, such as the chorus riff.
I know I have tabed a few parts wrong, but this was the best I could squeeze out.
Listen to the song, and the rhythms should be fairly simple to figure out.
Feel free to email me and let me know what you think or if you find any corrections.
Thank you.

************************************

| /   slide up
| \   slide down
| h   hammer-on
| p   pull-off
| ~   vibrato
| +   harmonic
| x   Mute note
| b   Bend
| pb  Pre-bend
| br  Bend release
| pbr Pre-bend release
| brb Bend release bend

************************************
Tap to rate this tab
# A B C D E F G H I J K L M N O P Q R S T U V W X Y Z