Song name
# A B C D E F G H I J K L M N O P Q R S T U V W X Y Z

Hands Like Houses - Shapeshifters tab

-------------------------------------------------------------------------------
                       Shapeshifters - Hands Like Houses
-------------------------------------------------------------------------------
Tabbed by: Drew Watt
E-mail:ajwatt77@gmail.com

Tuning: Drop B

        INTRO
   Rhythm Guitar   
C#|--------------------------------------------------------|
G#|--------------------------------------------------------|
E|---------------------------------------------------------|
B|---------------------------------------------------------|
F#|-4--4-4--4-4-4---7-7--2-2---0--0-0--0-0-0---7-7--2-2----|
B|--4--4-4--4-4-4---7-7--2-2---0--0-0--0-0-0---7-7--2-2----|

C#|--------------------------------------------------------------|
G#|--------------------------------------------------------------|
E|---------------------------------------------------------------|
B|---------------------------------------------------------------|
F#|-4--4-4--4-4-4---7-7--2-2---0--0-0--0-0-0---7-7--X-X-X-X-X----|
B|--4--4-4--4-4-4---7-7--2-2---0--0-0--0-0-0---7-7--X-X-X-X-X----|
    Lead Guitar
C#|--------------------------------------------------------|
G#|--------------------------------------------------------|
E|--6--6-6--6-6-6---9-9--4-4---2--2-2--2-2-2---9-9--4-4----|
B|---------------------------------------------------------|
F#|-4--4-4--4-4-4---7-7--2-2---0--0-0--0-0-0---7-7--2-2----|
B|---------------------------------------------------------|

C#|--------------------------------------------------------------|
G#|--------------------------------------------------------------|
E|--3--3-3--3-3-3---9-9--4-4---7--7-7--7-7-7---9-9---X-X-X-X-X---|
B|---------------------------------------------------------------|
F#|-1--1-1--1-1-1---7-7--2-2---5--5-5--5-5-5---7-7---X-X-X-X-X---|
B|---------------------------------------------------------------|

        VERSE
   Rhythm Guitar
C#|--------------------------------------------------------|
G#|--------------------------------------------------------|
E|---------------------------------------------------------|
B|---------------------------------------------------------|
F#|-4--4-4--4-4-4---7-7--2-2---0--0-0--0-0-0---7-7--2-2----|
B|--4--4-4--4-4-4---7-7--2-2---0--0-0--0-0-0---7-7--2-2----|

C#|--------------------------------------------------------------|
G#|--------------------------------------------------------------|
E|---------------------------------------------------------------|
B|---------------------------------------------------------------|
F#|-4--4-4--4-4-4---7-7--2-2---0--0-0--0-0-0---7-7--X-X-X-X-X----|
B|--4--4-4--4-4-4---7-7--2-2---0--0-0--0-0-0---7-7--X-X-X-X-X----|

C#|----------------------------------------------------------------------|
G#|----------------------------------------------------------------------|
E|-----------------------------------------------------------------------|
B|-----------------------------------------------------------------------|
F#|-4--2-4------4--2-4------4--2-4------7--7-7--7-7-7---2--2-2--2-2-2----|
B|--4--2-4------4--2-4------4--2-4------7--7-7--7-7-7---2--2-2--2-2-2----|
    Lead Guitar
C#|----------------------------------------------------------|
G#|----------------------------------------------------------|
E|---------------------------------------------------------|
B|---------------------------------------------------------|
F#|-4--4-4--4-4-4---7-7--2-2---0--0-0--0-0-0---7-7--2-2----|
B|--4--4-4--4-4-4---7-7--2-2---0--0-0--0-0-0---7-7--2-2----|

C#|--------------------------------------------------------------|
G#|--------------------------------------------------------------|
E|---------------------------------------------------------------|
B|---------------------------------------------------------------|
F#|-4--4-4--4-4-4---7-7--2-2---0--0-0--0-0-0---7-7--X-X-X-X-X----|
B|--4--4-4--4-4-4---7-7--2-2---0--0-0--0-0-0---7-7--X-X-X-X-X----|

C#|-------------------------------------------------------------------|
G#|-------------------------------------------------------------------|
E|----------9-----11-------------11-----14-------------9-----11-------|
B|------------x8-----x4-------------x8-----x4------------x8-----x4----|
F#|-4--2-4--7-----9------4--2-4--9------12-----4--2-4--7-----9--------|
B|--4--2-4---------------4--2-4----------------4--2-4-----------------|

C#|------------------|
G#|------------------|
E|--14-----13--------|
B|-----x6-----x6-----|
F#|-12---------------|
B|-------------------|

        PRE-CHORUS
   Rhythm Guitar
C#|-----------------------------------------------|
G#|-----------------------------------------------|
E|------------------------------------------------|
B|------------------------------------------------|
F#|-0-0-0-2-2-2-4-4-4-7-7-7--2-2--2-2--2-2--2~----|
B|--0-0-0-2-2-2-4-4-4-7-7-7--2-2--2-2--2-2--2~----|
   Lead Guitar
C#|--------------------------------------------------|
G#|--------------------------------------------------|
E|--7-7-7-9-9-9-11111114-14-14--9-9--9-9--9-9--9~----|
B|--7-7-7-9-9-9-11111114-14-14--9-9--9-9--9-9--9~----|
F#|-5-5-5-7-7-7-9-9-9-12-12-12--7-7--7-7--7-7--7~----|
B|---------------------------------------------------|

        CHORUS
   Rhythm Guitar
C#|----------------------------------------------------------|
G#|----------------------------------------------------------|
E|-----------------------------------------------------------|
B|-----------------------------------------------------------|
F#|-4--4-4--4-4--4--4-4--4--4-4--7--7-7--7-7--2--2-2--2-2----|
B|--4--4-4--4-4--4--4-4--4--4-4--7--7-7--7-7--2--2-2--2-2----|

C#|------------------------------------------------------|
G#|------------------------------------------------------|
E|-------------------------------------------------------|
B|-------------------------------------------------------|
F#|-0-0--2-2--4-4--7-7--2--2-2--2-2--2--2-2--2-2--XXX----|
B|--0-0--2-2--4-4--7-7--2--2-2--2-2--2--2-2--2-2--XXX----|

C#|----------------------------------------------------------|
G#|----------------------------------------------------------|
E|-----------------------------------------------------------|
B|-----------------------------------------------------------|
F#|-4--4-4--4-4--4--4-4--4--4-4--7--7-7--7-7--2--2-2--2-2----|
B|--4--4-4--4-4--4--4-4--4--4-4--7--7-7--7-7--2--2-2--2-2----|

C#|----------------------------------------------|
G#|----------------------------------------------|
E|-----------------------------------------------|
B|-----------------------------------------------|
F#|-0-0-0-2-2-2-4-4-4-7-7-7--2-2--2-2--2--XXX----|
B|--0-0-0-2-2-2-4-4-4-7-7-7--2-2--2-2--2--XXX----|
   Lead Guitar
  (Something along the lines of this)
C#|---------------------------------------------------------14--17--14------|
G#|------14--------12--------10----------------------------------------15---|
E|-13/14----14--13----13--11----11-9...(Notes I cant hear)...-------------14|
B|--------------------------------------------------------------------------|
F#|-------------------------------------------------------------------------|
B|--------------------------------------------------------------------------|

        VERSE2
   Rhythm Guitar
   (You find the ship...Youre the sea)
C#|-------------------------------------------------------------------------|
G#|-------------------------------------------------------------------------
E|--------------------------------------------------------------------------|
B|--------------------------------------------------------------------------|
F#|--*Bass/Drums*-------2--4--0--7--7-7--7-7-7--2--2-2--2-2-2---------------|
B|----------------------2--4--0--7--7-7--7-7-7--2--2-2--2-2-2---------------|

C#|-------------------------------------------------------------|
G#|-------------------------------------------------------------|
E|--------------------------------------------------------------|
B|--------------------------------------------------------------|
F#|-4--2-4----4--2-4----4--2-4------7--7-7--7-7--2--2-2--2-2----|
B|--4--2-4----4--2-4----4--2-4------7--7-7--7-7--2--2-2--2-2----|

C#|-----------------------------------------------|
G#|-----------------------------------------------|
E|------------------------------------------------|
B|------------------------------------------------|
F#|-0-0-0-2-2-2-4-4-4-7-7-7--2-2--2-2--2--2-2-----|
B|--0-0-0-2-2-2-4-4-4-7-7-7--2-2--2-2--2--2-2-----|
   Lead Guitar
   Same as Verse 1 

        CHORUS
   Rhythm Guitar
C#|----------------------------------------------------------|
G#|----------------------------------------------------------|
E|-----------------------------------------------------------|
B|-----------------------------------------------------------|
F#|-4--4-4--4-4--4--4-4--4--4-4--7--7-7--7-7--2--2-2--2-2----|
B|--4--4-4--4-4--4--4-4--4--4-4--7--7-7--7-7--2--2-2--2-2----|

C#|------------------------------------------------------|
G#|------------------------------------------------------|
E|-------------------------------------------------------|
B|-------------------------------------------------------|
F#|-0-0--2-2--4-4--7-7--2--2-2--2-2--2--2-2--2-2--XXX----|
B|--0-0--2-2--4-4--7-7--2--2-2--2-2--2--2-2--2-2--XXX----|

C#|----------------------------------------------------------|
G#|----------------------------------------------------------|
E|-----------------------------------------------------------|
B|-----------------------------------------------------------|
F#|-4--4-4--4-4--4--4-4--4--4-4--7--7-7--7-7--2--2-2--2-2----|
B|--4--4-4--4-4--4--4-4--4--4-4--7--7-7--7-7--2--2-2--2-2----|

C#|--------------------------------------------------------|
G#|--------------------------------------------------------|
E|---------------------------------------------------------|
B|---------------------------------------------------------|
F#|-0-0-0-2-2-2-4-4-4-7-7-7--2-2--2-2-2-2-2-2-2-2-2-2-2----|
B|--0-0-0-2-2-2-4-4-4-7-7-7--2-2--2-2-2-2-2-2-2-2-2-2-2----|
   
        BRIDGE
   Rhythm Guitar
       (From up this close I cant see a thing aside from you in front of me)
C#|-------------------------------------------------------------------------|
G#|-------------------------------------------------------------------------|
E|--------------------------------------------------------------------------|
B|--------------------------------------------------------------------------|
F#|--4~--------------7~----2~------------0~---------------------2~----------|
B|---4~--------------7~----2~------------0~---------------------2~----------|
   Lead Guitar
   (repeatedly)
C#|---9--------------12-----7------------9----------------------7-----------|
G#|--10--------------10----10-----------10----------------------9-----------|
E|--------------------------------------------------------------------------|
B|--------------------------------------------------------------------------|
F#|-------------------------------------------------------------------------|
B|--------------------------------------------------------------------------|

        DROP
   Rhythm Guitar
   (...embedded in your eyes)
C#|-------------------------------------------------------------------------|
G#|-------------------------------------------------------------------------|
E|--------------------------------------------------------------------------|
B|--------------------------------------------------------------------------|
F#|---------------------4-4-4-2-4-----4-4-4-2-4---7-7-2--2-2-2----4-4-4-2-4-|
B|----------------------4-4-4-2-4-----4-4-4-2-4---7-7-2--2-2-2----4-4-4-2-4-|

C#|--------------------------------|
G#|--------------------------------|
E|---------------------------------|
B|---------------------------------|
F#|--4-4-4-2-4---X-7--X-2--4~------|
B|---4-4-4-2-4---X-7--X-2--4~------|
  Lead Guitar
C#|----------------------------------------------------------------------|
G#|----------------------------------------------------------------------|
E|--11----6-----9-------6-----4----3------11----6----9----X14--X9--6~----|
B|----x4----x4----x4------x4---x4---x4------x4---x4---x4--X14--X9--------|
F#|-9-----4-----7-------4-----2----1------9-----4----7----X12--X7--4~----|
B|-----------------------------------------------------------------------|

        CHORUS
   Rhythm Guitar
     (Lets take it all...every place we dance in a way we never leave)
C#|---------------------------------------------------------------------|
G#|---------------------------------------------------------------------|
E|------------------------------------X9---------X9-----X9--------------|
B|------------------------------------X9---------X9-----X9--------------|
F#|-~4~-------------------------------X7---------X7-----X7--------------|
B|--~4~-----------------------------------------------------------------|

C#|----------------------------------------------------------|
G#|----------------------------------------------------------|
E|-----------------------------------------------------------|
B|-----------------------------------------------------------|
F#|-4--4-4--4-4--4--4-4--4--4-4--7--7-7--7-7--2--2-2--2-2----|
B|--4--4-4--4-4--4--4-4--4--4-4--7--7-7--7-7--2--2-2--2-2----|

C#|-------------------------------------------------|
G#|-------------------------------------------------|
E|--------------------------------------------------|
B|--------------------------------------------------|
F#|-0-0--2-2--4-4--7-7--2--2-2-2-2-2-2-2-2-2-2-2----|
B|--0-0--2-2--4-4--7-7--2--2-2-2-2-2-2-2-2-2-2-2----|

C#|----------------------------------------------------------|
G#|----------------------------------------------------------|
E|-----------------------------------------------------------|
B|-----------------------------------------------------------|
F#|-4--4-4--4-4--4--4-4--4--4-4--7--7-7--7-7--2--2-2--2-2----|
B|--4--4-4--4-4--4--4-4--4--4-4--7--7-7--7-7--2--2-2--2-2----|

C#|-------------------------------------------------------------|
G#|-------------------------------------------------------------|
E|--------------------------------------------------------------|
B|--------------------------------------------------------------|
F#|-0-0-0-2-2-2-4-4-4-7-7-7--2--X-2--X-2--2-2-2-2-2-2-2---2\----|
B|--0-0-0-2-2-2-4-4-4-7-7-7--2--X-2--X-2--2-2-2-2-2-2-2---2\----|

  Feedback would be much appreciated, as well as corrections on 
  any mistakes.
  If you can figure the chorus lead out, please let me know.

************************************

| /   slide up
| \   slide down
| h   hammer-on
| p   pull-off
| ~   vibrato
| +   harmonic
| x   Mute note
| b   Bend
| pb  Pre-bend
| br  Bend release
| pbr Pre-bend release
| brb Bend release bend

************************************
Tap to rate this tab
# A B C D E F G H I J K L M N O P Q R S T U V W X Y Z