Song name
# A B C D E F G H I J K L M N O P Q R S T U V W X Y Z

Hands Like Houses - A Fire On A Hill tab

Fire on a Hill – Hands Like Houses

Tuning: Drop C# (C# G# C# D# A# F#)

The tuning they use is Drop D. But I don’t like tuning any higher than Drop C# 
sooooo, here’s this!

This tab is based off one by BLUE3UN

Intro (Part 1)

Electric 1
Clean

D#|-18----------------------16-14----14----21h23h23h23h23-25-|
A#|----18-14-18----------16-------18----15-------------------|
F#|-------------15-15-18-------------------------------------| x2
C#|----------------------------------------------------------|
G#|----------------------------------------------------------|
C#|----------------------------------------------------------|

Intro (Part 2)

Electric 1

D#|-----------------|    D#|------------------------------------|
A#|-11--------------|    A#|-\13-11-------\16-18-14-16-13h14p13-|
F#|----10-8-10------| x2 F#|--------10~-8-----------------------| All x2
C#|------------8-11-|    C#|------------------------------------|
G#|-----------------|    G#|------------------------------------|
C#|-----------------|    C#|------------------------------------|

Electric 2

D#|-----    ---------------------|
A#|-----    ---------------------|
F#|-----    ---------------------|
C#|-3-4-    --8-3-4-6-3----13-15-|
G#|-3-4-    --8-3-4-6-3-x2-13-15-|
C#|-3-4-    --8-3-4-6-3----13-15-|

Verse (Part 1)

Electric 2
Clean

D#|------------|
A#|------------|
F#|-15-13-8-10-|
C#|-15-13-8-10-|
G#|-13-11-6--8-|
C#|------------|

Verse (Part 2)

Electric 1

D#|-------------------------------------|
A#|-13-14----13-16----------12-------12-|
F#|-------10-------13-------------------|
C#|-------------------13-15----13-15----|
G#|-------------------------------------|
C#|-------------------------------------|
Electric 2
Clean

D#|------------|
A#|------------|
F#|-15-13-8-10-|
C#|-15-13-8-10-|
G#|-13-11-6--8-|
C#|------------|

Pre-Chorus

Electric 1

D#|----------------------------------|
A#|----------------------------------|
F#|-------------13-------------17-13-| x2
C#|-13h15p13-11----13h15p13-11-------|
G#|----------------------------------|
C#|----------------------------------|

Electric 2

D#|----------|
A#|----------|
F#|----------|
C#|-11-15-13-|
G#|-11-15-13-|
C#|-11-15-13-|

Chorus

Electric 1

D#|-----------------------------------------|
A#|-13h14p13------------------9-11----------|
F#|----------13-13-10-8-10---------8-10-10--|
C#|------------------------11---------------|
G#|-----------------------------------------|
C#|-----------------------------------------|

D#|--------------------------------------------|
A#|-13h14p13------------------13h14h14h14\\\20-|
F#|----------13-13-10-7h10h10------------------|
C#|--------------------------------------------|
G#|--------------------------------------------|
C#|--------------------------------------------|

Electric 2

D#|---------------|
A#|---------------|
F#|---------------|
C#|-11-8-3-11-8-4-|
G#|-11-8-3-11-8-4-|
C#|-11-8-3-11-8-4-|







Pre-Verse

Electric 1 
(Hold Really Long)

D#|----------|
A#|-21-19-18-|
F#|----------|
C#|----------|
G#|----------|
C#|----------|

Verse (Part 1)

Electric 2

D#|------------|
A#|------------|
F#|-13-13-8-10-|
C#|-13-13-8-10-|
G#|-11-11-6--8-|
C#|------------|

Verse (Part 2)

Electric 1

D#|-------------------------------|
A#|-13-11-13-11-------------------|
F#|-------------10-13-10-13-10----|
C#|----------------------------13-|
G#|-------------------------------|
C#|-------------------------------|

Electric 2
(1 Strum Each)

D#|------|
A#|------|
F#|-15-8-|
C#|-15-8-|
G#|-13-6-|
C#|------|

Repeat Pre-Chorus

Repeat Chorus

Repeat Pre-Verse

Repeat Intro (Part 1)

Pre-Bridge

Electric 1 & 2

D#|-----|
A#|-----|
F#|-----|
C#|-3-4-|
G#|-3-4-|
C#|-3-4-|
Bridge

D#|----------|
A#|----------|
F#|----------|
C#|-11-8-3-4-|
G#|-11-8-3-4-|
C#|-11-8-3-4-|

Chorus (with Electric 1 variation)

Electric 1

D#|-------------|
A#|-99-66----66-|
F#|-------88----|
C#|-------------|
G#|-------------|
C#|-------------|
Tap to rate this tab
# A B C D E F G H I J K L M N O P Q R S T U V W X Y Z