Song name
# A B C D E F G H I J K L M N O P Q R S T U V W X Y Z

Hands Like Houses - Introduced Species tab

Me and my band will do a cover of this soon.

Intro =

E|-----------------------------------------------------|
B|----------13---------------------------13------------|
G|--------15--12------12---------------15--12------12--|(x2)
D|---------------15-15---15-----13--13--------15-15--15|
A|-151515---------------------15--15-------------------|
E|-----------------------------------------------------|

E|------------|
B|------------|
G|------------|
D|-10---8---6-|
A|-10---8---6-|
E|-8----6---4-|

Verse =

E|-15~---18~---13~-|
B|-----------------|
G|-----------------|
D|-----------------|
A|-----------------|
E|-----------------|

Pre Chorus =

E|----------------|
B|----------------|
G|-----8----------|
D|-10--8--3--6--8-|
A|-10--6--3--6--8-|
E|-8------1--4--6-|

Chorus =

E|--------------|
B|--------------|
G|--------------|(x4)
D|-6--10--8--10-|
A|-6--10--8--10-|
E|-4--8---6--8--|

E|-20-18-15----15------------------------15----------|
B|----------18----18-16-(x2)-15-15-16-18----18-16-15-|
G|---------------------------------------------------|
D|---------------------------------------------------|
A|---------------------------------------------------|
E|---------------------------------------------------|

E|--20-18-15----15-------20-18-15--------------|
B|-----------18----18-16----------16b-15-13----|
G|------------------------------------------15-|
D|---------------------------------------------|
A|---------------------------------------------|
E|---------------------------------------------|

Return To Intro.

Return To Verse.

Return To Pre Chorus. 

Return To Chorus.

Bridge =

E|-------------------------|
B|-------------------------|
G|-------------------------|
D|-15-17-15-12-13-12-------|
A|-------------------15-13-|
E|-------------------------|

E|-----------------------------------------------------|
B|----------13---------------------------13------------|
G|--------15--12------12---------------15--12------12--|
D|--------------15-15----15------13--13-------15-15--15|
A|-151515----------------------15--15------------------|
E|-----------------------------------------------------|

Return To Chorus.

Outro =

E|-----------------------|
B|-/13-11----------------|
G|--------12-10----------|
D|--------------13-12-10-|
A|-----------------------|
E|-----------------------|

Tap to rate this tab
# A B C D E F G H I J K L M N O P Q R S T U V W X Y Z