Guitaretab - guitar tabs
Song name
# A B C D E F G H I J K L M N O P Q R S T U V W X Y Z

Hands On Approach - Do You Believe It tab

Highlighted       Show chord diagrams
Artist: Hands On Approach
Song: Do You Believe It?
Album: Groovin' On Monster's Eye-Balls (2005)

Tabbed by Coronas

There are still missing some parts like the solo and the lead guitar parts, but soon 
will be written in here.

        E  A  D  G  B  E

B       x  2  4  4  4  2
Bmaj7   x  2  4  3  4  2
A       5  7  7  6  5  5
F#      2  4  4  3  2  2
E       0  2  2  1  0  0
G       3  5  5  4  3  3


Intro:
B	Bmaj7		B	Bmaj7

Verse 1:
B   Bmaj7                 B          Bmaj7
   Itís getting hard the way I feel inside
B          Bmaj7              A      B
Words left unsaid, twitching always on my mind


Pre-chorus:
F#                     E
Are the answers right here, right now
               B
Dead on my mind
F#                     E
Are the answers right here, right now
                 B
Waiting to be found


Chorus:
B   Bmaj7		 B     Bmaj7
      Do you believe it?
            B      Bmaj7
Do you believe it?
            B   Bmaj7
Do you believe it?

B	Bmaj7		B	Bmaj7

Verse 2:
B        Bmaj7  B              Bmaj7
   This day is all I could give away
B                Bmaj7
Choices not so great
                  A
As if you could always reach
B
Your own heart


Verse 3:
B       Bmaj7     B           Bmaj7
I fell apart the pieces at my sight
B             Bmaj7
Well deeply stare
            A           B
Changing so much throughout my life


Pre-chorus:
F#                     E
Are the answers right here, right now
               B
Dead on my mind
F#                     E
Are the answers right here, right now
                 B
Waiting to be found


Chorus:
B   Bmaj7		 B     Bmaj7
      Do you believe it?
            B      Bmaj7
Do you believe it?
            B   Bmaj7
Do you believe it?


Instrumental Bridge:
B	F#	E	B
B	F#	E	B

   B                                 Bm
e|---------------------------------|---------------------------------|
B|---------------------------------|---------------------------------|
G|---------------------------------|---------------------------------|
D|-4-4-4-4-4-4-4-4-4-4-4-4-4-4-4-4-|-3-3-3-3-3-3-3-3-3-3-3-3-3-3-3-3-|
A|---------------------------------|---------------------------------|
E|---------------------------------|---------------------------------|
[ Tab from: http://www.guitaretab.com/h/hands-on-approach/105429.html ]
   B                                 Bm
e|---------------------------------|---------------------------------|
B|---------------------------------|---------------------------------|
G|---------------------------------|---------------------------------|
D|-4-4-4-4-4-4-4-4-4-4-4-4-4-4-4-4-|-3-3-3-3-3-3-3-3-3-3-3-3-3-3-3-3-|
A|---------------------------------|---------------------------------|
E|---------------------------------|---------------------------------|


Solo:
    B                                                             F#
e|-------------------------------------------------------------------|
B|-------------------------------------------------------------------|
G|-------------------------------------------------------------------|
D|--9---11---11---11---11---9------9---11---11---11---11---9----9-8--|
A|-------------------------------------------------------------------|
E|-------------------------------------------------------------------|

    F#                           E
e|---------------------------------|-------------11--------11--------|
B|-------11--------11--------11/12-|--12-----12--------12--------12--|
G|--11--------11--------11---------|---------------------------------|
D|---------------------------------|---------------------------------|
A|---------------------------------|---------------------------------|
E|---------------------------------|---------------------------------|

    B                                                             F#
e|-------------------------------------------------------------------|
B|-------------------------------------------------------------------|
G|-------------------------------------------------------------------|
D|--9---11---11---11---11---9------9---11---11---11---11---9----9-8--|
A|-------------------------------------------------------------------|
E|-------------------------------------------------------------------|

    F#                          E                                  B
e|---------------------------------|------------11-------11-----------|
B|------11--------11--------11/12--|--12---12-------12--------12--12--|
G|--11-------11--------11----------|----------------------------------|
D|---------------------------------|----------------------------------|
A|---------------------------------|----------------------------------|
E|---------------------------------|----------------------------------|


Verse 5:
B   Bmaj7                 B          Bmaj7
   Itís getting hard the way I feel inside
B          Bmaj7              A      B
Words left unsaid, twitching always on my mind


Pre-chorus:
F#                     E
Are the answers right here, right now
               B
Dead on my mind
F#                     E
Are the answers right here, right now
                 B
Waiting to be found


Chorus:
B   Bmaj7		 B     Bmaj7
      Do you believe it?
            B      Bmaj7
Do you believe it?
            B   Bmaj7
Do you believe it?


Ending:
G	B	G	B	(3x)
G	B	F#	E
Related for Do You Believe It tab