Song name
# A B C D E F G H I J K L M N O P Q R S T U V W X Y Z

Hands - Ignorance tab

http://www.myspace.com/wearehands

Hands - Ignorance

From The Sound Of The Eart Album
Track #09

Standard Tuning (EADGBE)

|------------------------------------------------|
|------------------------------------------------|
|------------------------------------------------|
|-3~~~-3-----------------3-------------3---------|
|-1~~~----5--3-5-1---5-6----6--5--1~~~----3-5--1-|
|------------------------------------------------|

|-------------------------------------------------1~--6-|
|-------------------------------------------------1~--6-|
|------7-----------------------3~~~~------------2-------|
|-8~~~---8----8---5-7-8--7--5--3~~~~-3--------3-----3---|
|10~~~-----10------------------1~~~~---5----3-----------|
|-----------------------------------------1-------------|

Repeat that - he varies a little bit (octave).
Use a delay ~550.

Tabbed by punchup.
Tap to rate this tab
 
# A B C D E F G H I J K L M N O P Q R S T U V W X Y Z