Song name
# A B C D E F G H I J K L M N O P Q R S T U V W X Y Z

Handsome Boy Modeling School - The Worlds Gone Mad tab

http://www.handsomeboymodelingschool.com/

THE WORLD'S GONE MAD by Handsome Boy Modeling School from the album "White People"

This song has two guitar parts, albeit very simple ones.  Enjoy!

Guitar 1
Play this throughout:
e|-3-3-5-5-6-6-5-5-|
B|-3-3-3-3-3-3-3-3-|
G|(0-0-0-0-0-0-0-0)|
D|-----------------|
A|-----------------|
E|-----------------|

Guitar 2
Play this during,
"'Cause the world's gone..."
palm muted:
e|-------------------------------|
B|-------------------------------|
G|7-5-------------7-5-------5----|
D|----8-5-8-----5-----8-5-8---8-5|
A|----------5-8------------------|
E|-------------------------------|

That's it!
Tap to rate this tab
# A B C D E F G H I J K L M N O P Q R S T U V W X Y Z