Song name
# A B C D E F G H I J K L M N O P Q R S T U V W X Y Z

Handsome Devil - Makin Money tab

Help us improve GuitareTab! Take a short survey!
=======================================================================
Song: Makin' Money
Band: Handsome Devil
Album: Love And Kisses From The Underground
Tuning: Standard (EADGBe)
Tabbed by: Jake Something (sloppyjoe24)

h = hammer on                   
p = pull off                    
^ = bend                               
r = release
~ = let it ring                         
/ = slide up                             
\ = slide down                            
. = palm mute                              
+ = harmonic                                
v = vibrato

=======================================================================

Solo I: 

e|-------------------------------------------|
B|-------------------------------------------|
G|--12~--10~--9~--7~--9~--7~--9~--10~--------|
D|-------------------10~--9~-10~--12~--------|
A|-------------------------------------------|
E|-------------------------------------------|

e|-------------------------------------------|
B|-------------------------------------------|
G|-----5--7^(9)r--7--7--7^(9)v---------------|
D|-------------------------------------------|
A|-------------------------------------------|
E|-------------------------------------------|

e|-12-15-15-13-12-13-12-15-15^(17)-15--------|
B|-------------------------------------------|
G|-------------------------------------------|
D|-------------------------------------------|
A|-------------------------------------------|
E|-------------------------------------------|

e|--12h15-13p12-13p12---12--------15---------|
B|--------------------15--15^(17)---15^(17)--|
G|-------------------------------------------|
D|-------------------------------------------|
A|-------------------------------------------|
E|-------------------------------------------|

e|--------15p12------------------------------|
B|--10/12-------15p13p12---------------------|
G|----------------------14p12----12^(14)-----|
D|----------------------------14-------------|
A|-------------------------------------------|
E|-------------------------------------------|


e|------------------------------15^(17)--15^(17)--15^(17)--15~-------|
B|--12-13--15~--15~--15~--15~----------------------------------------|
G|-------------------------------------------------------------------|
D|-------------------------------------------------------------------|
A|-------------------------------------------------------------------|
E|-------------------------------------------------------------------|

=======================================================================

Solo II:

e|----------------------------------------------8-8-----8-8-----8-8--|
B|--5--5--5--5--5--5--5--5--5----8---8---8------8-8-----8-8-----8-8--|
G|--7^-7^-7^-7^-7^-7^-7^-7^-7^--10^-10^-10^-10^-----10^-----10^------|
D|-------------------------------------------------------------------|
A|-------------------------------------------------------------------|
E|-------------------------------------------------------------------|

e|------8-8-----8-8--8------8------8------8------8------8------8-----|
B|------8-8-----8-8---11p8---11p8---11p8---11p8---11p8---11p8---11p8-|
G|--10^-----10^------------------------------------------------------|
D|-------------------------------------------------------------------|
A|-------------------------------------------------------------------|
E|-------------------------------------------------------------------|

=======================================================================
Related for Makin Money tab