Song name
# A B C D E F G H I J K L M N O P Q R S T U V W X Y Z

Handsome Furs - Dead Rural tab

----------------------------------------------------------------------------
			     Dead + Rural - Handsome Furs
---------------------------------------------------------------------------
Album: Plague Park
Tabbed by: Keith
Email:krsarault@hotmail.com

 "Plague Park"

Tuning: dGCFAD

There are two basic Riffs to this song. Just listen to the song for the timing 
and  bends here and there.

Intro/ bridge Riff:
D|-------------------|------------------------|
A|-------------------|---------------5-3------|
F|-----4-4-4-2-------|-----4-4-4-2------------|
C|------------5-2-5--|-------------5----------|
G|-----------------5-|------------------------|
d|-3-----------------|-3----------------------|

Verse Riff: 
D|---------------|
A|---------------|
F|---------------|
C|---------------|
G|-------3-------|
d|-3-------------|
Tap to rate this tab
 
# A B C D E F G H I J K L M N O P Q R S T U V W X Y Z