Song name
# A B C D E F G H I J K L M N O P Q R S T U V W X Y Z

Hang The Bastard - Hells Teeth tab

HANG THE BASTARD - HELL'S TEETH

C#|----------------------------------|
G#|----------------------------------|
 E|----------------------------------| 
 B|----------------------------------| 1,3
F#|-7--5--0--3--5--6-0-0-0-0-0-0-0-0-|
 B|-7--5--0--3--5--6-0-0-0-0-0-0-0-0-|
                     P M P M P M P M

C#|-----------------------------------|
G#|-----------------------------------|
 E|-----------------------------------| 
 B|------------------8--8--8--8--8--8-| 2,4
F#|-7--5--0--3--5--6-6--6--6--6--6--6-|
 B|-7--5--0--3--5---------------------|

C#|------------------------------|
G#|------------------------------|
 E|------------------------------| 
 B|------------------6-6-6-6-6-6-| 1,3
F#|-5--3--0--3--5--3-6-6-6-6-6-6-|
 B|-5--3--0--3--5----6-6-6-6-6-6-|
                     P M P M P M

C#|-----------------------------------|
G#|-----------------------------------|
 E|-----------------------------------| 
 B|------------------8--8--8--8--8--8-| 2
F#|-5--3--0--3--5--3-6--6--6--5--5--5-|
 B|-5--3--0--3--5---------------------|

C#|--------------------|
G#|--------------------|
 E|--------------------| 
 B|------------------0-| 4
F#|-5--3--0--3--5--3-0-|
 B|-5--3--0--3--5----0-|

C#|----------------------------------|
G#|----------------------------------|
 E|----------------------------------| 
 B|----------------------------------| 1,3
F#|-7--5--0--3--5--6-0-0-0-0-0-0-0-0-|
 B|-7--5--0--3--5--6-0-0-0-0-0-0-0-0-|
                     P M P M P M P M

C#|-----------------------------------|
G#|-----------------------------------|
 E|-----------------------------------| 
 B|------------------8--8--8--8--8--8-| 2,4
F#|-7--5--0--3--5--6-6--6--6--6--6--6-|
 B|-7--5--0--3--5---------------------|

C#|------------------------------|
G#|------------------------------|
 E|------------------------------| 
 B|------------------6-6-6-6-6-6-| 1,3
F#|-5--3--0--3--5--3-6-6-6-6-6-6-|
 B|-5--3--0--3--5----6-6-6-6-6-6-|
                     P M P M P M

C#|-----------------------------------|
G#|-----------------------------------|
 E|-----------------------------------| 
 B|------------------8--8--8--8--8--8-| 2
F#|-5--3--0--3--5--3-6--6--6--5--5--5-|
 B|-5--3--0--3--5---------------------|

C#|------------------------------|
G#|------------------------------|
 E|------------------------------| 
 B|------------------8-8-8-8-8-8-| 4
F#|-5--3--0--3--5--3-6-6-6-6-6-6-|
 B|-5--3--0--3--5----------------|
                     
C#|---------------------------------|
G#|---------------------------------|
 E|---------------------------------| 
 B|---------------------------------| x3
F#|-7p6-0-7p6-0-7p6-0-0-0-0-0-0-0-0-|
 B|-7p6-0-7p6-0-7p6-0-0-0-0-0-0-0-0-|
       PM    PM     P M P M P M P M

C#|-------------------|
G#|-------------------|
 E|-------------------| 
 B|-------------------| x3
F#|-7p6-0-7p6-0-7p6-0-|
 B|-7p6-0-7p6-0-7p6-0-|
       PM    PM     

C#|-- x4 --|-----------|-- x4 -|-----------|
G#|--------|-----------|-------|-----------|
 E|--------|-----------|-------|-----------| 
 B|--------|-----------|-------|-----------| 1,2,5,6
F#|-\7-6-0-|-10-0-10-0-|-7-6-0-|-12-0-12-0-|
 B|-\7-6-0-|-10-0-10-0-|-7-6-0-|-12-0-12-0-|

C#|--- x4 --|-----------|--- x4 --|---------------|
G#|---------|-----------|---------|---------------|
 E|---------|-----------|---------|---------------| 
 B|---------|-----------|---------|-----3-3h5p3---| 3,4,7,8
F#|-12-10-0-|-15-0-15-0-|-12-10-0-|-3-5---------5-|
 B|-12-10-0-|-15-0-15-0-|-12-10-0-|---------------|

C#|----------------------------|
G#|----------------------------|
 E|----------------------------| 
 B|-7-5-3-3h5p3-------3---5--7-|
F#|-------------5-3-5---5-3--5-|
 B|----------------------------|
                          PM

OTHER GUITAR RIFF X1

C#|---------------------------------|
G#|---------------------------------|
 E|---------------------------------| 
 B|---------------------------------| 1,3,5,7,9
F#|-6-5-0-0-0-0-000-0-0-000-0-0-000-|
 B|-6-5-0-0-0-0-000-0-0-000-0-0-000-|
       PM   P M P M P M P M P M P M

C#|-------------------------------|
G#|-------------------------------|
 E|-------------------------------| 
 B|-------------5---7---7-8-8-8-8-| 2,4,6,8,10
F#|-6-5-0-0-0-0-3-0-5-0-5-6-6-6-6-|
 B|-6-5-0-0-0-0---0---0-----------|
       PM   P M   PM  PM

C#|---------|
G#|---------|
 E|---------| 
 B|---------|
F#|-6-5-3-5-|
 B|-6-5-3-5-|
    P M P M

C#|---------------------------------|
G#|---------------------------------|
 E|---------------------------------| 
 B|---------------------------------| 1,3
F#|-6-5-0-0-0-0-000-0-0-000-0-0-000-|
 B|-6-5-0-0-0-0-000-0-0-000-0-0-000-|
       PM   P M P M P M P M P M P M

C#|-------------------------------|
G#|-------------------------------|
 E|-------------------------------| 
 B|-------------5---7---7-8-8-8-8-| 2,4
F#|-6-5-0-0-0-0-3-0-5-0-5-6-6-6-6-|
 B|-6-5-0-0-0-0---0---0-----------|
       PM   P M   PM  PM
Tap to rate this tab
# A B C D E F G H I J K L M N O P Q R S T U V W X Y Z