Song name
# A B C D E F G H I J K L M N O P Q R S T U V W X Y Z

Hanging Garden - As The Circle Fades tab

-------------------------------------------------------------------------------
                    AS THE CIRCLE FADES - Hanging Garden
-------------------------------------------------------------------------------

Tuning: C# (C# F# B E G# C#)


Intro & verse (repeated many, many times):
C#|----------------------------------------------|
G#|----------------------------------------------|
E |---------------------------------------6------|
B |---9-----6-----9-----9-----6-----9--------8---|
F#|------6-----------6-----6-----------6---------|
C#|----------------------------------------------|

C#|-------------------------------------------------|
G#|-------------------------------------------------|
E |------------------------------------------6------|
B |---9-----6-----9-----9-----6-------9---------8---|
F#|------6-----------6-----6-----9--------6---------|
C#|-------------------------------------------------|


Pre-chorus:
(after "Crucified with rusty nails...")
(after "We all will be erased...")
C#|-------------------------------------|
G#|-------------------------------------|
E |-------------------------------------|
B |---6-----2-----4-----6-----2-----5---|
F#|---6-----2-----4-----6-----2-----5---|
C#|---4-----0-----2-----4-----0-----3---| (x 2)
   (x 8) (x 4) (x 4) (x 8) (x 4) (x 4)


Pre-chorus, guitar 2 (repeated 2 times):
(starts with vocals on both times)
C#|------------------------------------|
G#|------------------------------------|
E |----------------------------9---8---|
B |---9-----9--8--8------11------------|
F#|------------------11----------------|
C#|------------------------------------|

C#|-------------------------------------|
G#|-------------------------------------|
E |-------------------------------------|
B |---9-----9--8--8------8--------------|
F#|------------------11--------11---9---|
C#|-------------------------------------|


After pre-chorus, guitars enter into the chorus with this:

Guitar 1:
C#|-------|
G#|-------|
E |-------|
B |---6---|
F#|---6---|
C#|---4---|

Guitar 2:
C#|-------|
G#|-------|
E |-------|
B |---9---|
F#|-------|
C#|-------|


Chorus:
("In the wind worn-out shelters halters sway our loved ones left to hang and decay...")

Guitar 1:
C#|---------------------------------|
G#|--------11p9--12p11--------------|
E |---8p6--------------11p9---9p8---|
B |---------------------------------|
F#|---------------------------------|
C#|---------------------------------| (x 4)
     (x 8) (x 8) (x 8) (x 4) (x 4)

Guitar 2 (repeat 4 times):
C#|-------------------------------------------|
G#|-------------------------------------------|
E |-------------------------------------------|
B |---6---6---6---6---6---8---8---8---8---8---|
F#|---6---6---6---6---6---8---8---8---8---8---|
C#|---4---4---4---4---4---6---6---6---6---6---|
PM            .                   .

C#|----------------------------------------------------|
G#|----------------------------------------------------|
E |----------------------------------------------------|
B |---14---14---14---14---14---13---13---13---11---8---|
F#|---14---14---14---14---14---13---13---13---11---8---|
C#|---12---12---12---12---12---11---11---11----9---6---|
PM               .                        .


Bridge to outro:
(first without vocals, then "The circle fades away...")

Guitar 1:
C#|-----------------------------------------------------------------|
G#|-----------------------------------------------------------------|
E |-----------------------------------------------------------------|
B |-------------------11-----11----11-13-----13-11-13-14------------|
F#|---11-----14-13-14-----------14-------------------------14--13---|
C#|-----------------------------------------------------------------| (x 2)

C#|-----------------------------------------------------------------|
G#|-----------------------------------------------------------------|
E |-----------------------------------------------------------------|
B |---13-----13-11-13-14-----13-11-13-------------------------------|
F#|-----------------------------------14-----14-13-14-13---11--10---|
C#|-----------------------------------------------------------------| (x 2)

Guitar 2:
C#|-----------------------------------------------------|
G#|-----------------------------------------------------|
E |-----------------------------------------------------|
B |---6--6---6-6-6---6-6-6-6-6--6---6-6-6-6-6-6-6-6-6---|
F#|---6--6---6-6-6---6-6-6-6-6--6---6-6-6-6-6-6-6-6-6---|
C#|---4--4---4-4-4---4-4-4-4-4--4---4-4-4-4-4-4-4-4-4---| (x 8)
PM    .  .   . . .   . . . . .  .   . . . . . . . . .


Outro:
("We have no more time, no... no more time...")
C#|--------------------------|
G#|--------------------------|
E |--------------------------|
B |---6-----14-----9----13---|
F#|---6-----14-----9----13---|
C#|---4-----12-----7----11---|
   (x 16) (x 8) (x 4) (x 4)

C#|--------------------------------|
G#|--------------------------------|
E |--------------------------------|
B |---6-----14----16----14-----9---|
F#|---6-----14----16----14-----9---|
C#|---4-----12----14----12-----7---|
   (x 16) (x 5) (x 4) (x 4) (x 3)

Repeat outro 4 times, intro melody steps in on the 4th repeat
and continues playing until the end.



************************************

| /   slide up
| \   slide down
| h   hammer-on
| p   pull-off
| ~   vibrato
| +   harmonic
| x   Mute note
| b   Bend
| pb  Pre-bend
| br  Bend release
| pbr Pre-bend release
| brb Bend release bend

************************************
Tap to rate this tab
 
# A B C D E F G H I J K L M N O P Q R S T U V W X Y Z