Song name
# A B C D E F G H I J K L M N O P Q R S T U V W X Y Z

Hangry And Angry - Sadistic Dance chords

Highlighted       Show chord diagrams
Sadistic Dance
Hangry & Angry
tabbed by manOutOfTime (Neil_willey@hotmail)

****Basically just the same chord sequence repeated (apart from the middle 8 before the 
guitar solo)****

F#m          D            A               E
yubisaki wo, kimi no koshi ni oyogaseteiku SLOWDANCE.
(Fondle your waist at my fingertips (it's)SLOWDANCE)
tokidoki wa tsuki hanashite, moteasobu youni...
(Sometimes push you off like a game)

fukuzatsu na shiki wo toku kao wo shite,
(The face is like a solving complicated equation)
tsugi no asa made, boku tachi ha odoru.
(We dance until sunrise)

SADISTIC DANCE SADISTIC DANCE SADISTIC DANCE
asa made odoru,
(Dancing until sunrise)
WOW DANCE, SADISTIC DANCE SADISTIC DANCE
shisen atsumete.
(with (people's)gaze)

kimi wo aishiteru furi wa yameta no.
(I stoped making pretense to love you)
kawaita namida ukaberu boku...
(Hungry tears in my eyes)

WOW THIS IS MY VIBE

furete mita kimi no shinzou. kimi wo tasikametakute.
(I touch your heart to identify you)
Wazato shita yobimachigai wa kodou hayaku saseru...
(Speed up heart rate cause I said otherone's name out of spite)

yubisaki ha, hosoi tabako ni hi wo tukete,
(Light a thin cigarette with fingertips)
Heiki sou na kao wo shite, kokyu asaku naru.
(The face is calm and composed but getting breath more feebly)

THIS IS MY VIBE THIS IS MY VIBE THIS IS MY VIBE
kimi wo nusunde,
(I steal you)
THIS IS MY VIBE, THIS IS MY VIBE THIS IS MY VIBE
utai tsuzukete.
(Keep on dancing)

kuchibiru kasaneta ato wa, konomama...
(Put a lip on another(=KISS),and then...)
boku no tekunikku kara ha mou, nogare rane nai yo.
(You can't escape from my technique)

D            F#m
mata kimi wa warau.
(You smile again)

-----------|
-------14--|
----14-----|
-11--------|
-----------|
-----------|

D            E   F
akuma no you ni. Ah
(looks like a evil. Ah)

F#m          D            A               E x2

-----------------------------------------------------------------------------|
----------------------------------------------------14--14--14/17\14---------|
-14-14-14----------14-14-14-16-16-16-14-14-14-14-16------------------16-16---|
----------16-16-16-----------------------------------------------------------|
-----------------------------------------------------------------------------|
-----------------------------------------------------------------------------|

-------------------|-------------------------------------------------17-17---|
-------------------|-17-17/19\17----------17-17/19\17-17-17------------------|
-16-16-16-16-16-16-|-------------18-18-18-------------------18-18-18---------|
-------------------|---------------------------------------------------------|
-------------------|---------------------------------------------------------|
-------------------|---------------------------------------------------------|

-17-17-17-17-17-19\\\--|-----------------------------------------------------|
-----------------------|-----------------------------------------------------|
-----------------------|-----------------------------------------------------|
-----------------------|-----------------------------------------------------|
-----------------------|-----------------------------------------------------|
-----------------------|-----------------------------------------------------|

F#m          D            A               E
SADISTIC DANCE SADISTIC DANCE SADISTIC DANCE
asa made odoru,
(Dancing until sunrise)
WOW DANCE, SADISTIC DANCE SADISTIC DANCE
shisen atsumete.
(with (people's)gaze)

kimi wo aishiteru furi wa yameta no.
(I stoped making pretense to love you)
kawaita namida ukaberu boku...
(Hungry tears in my eyes)
Tap to rate this tab
# A B C D E F G H I J K L M N O P Q R S T U V W X Y Z