Song name
# A B C D E F G H I J K L M N O P Q R S T U V W X Y Z

Hangry And Angry - Doubt tab

Doubt
by Hangry & Angry
tabed by manOutOfTime

*Chorus*
      F           Em        G            Am
Zutto zutto kimio konnanimo aishite irukara
       F             C      Am
Kimini shinjiru tsuyosao agetai

Am F

*Verse*
Am               C        Am             F
Shinjiru koto utagau koto coin no omote ura no yoni
Am              C           G             Am
Dochirani shitatte kimiwa aisarete itadakeda

       FF              GG          Am
Onegai no doubt bokuwa no doubt zutto
         F               G   Asus4     Am
Konomama no doubt bukuwa sobani iruyo

*Chorus*
      F           Em        G            Am
Zutto zutto kimio konnanimo aishite irukara
       F             C      Am
Kimini shinjiru tsuyosao agetai
      F           Em        G            Am
Darekao utagai tsuzukeru hibini nanio miru ?
       F             C      Am
Hontowa aisarete itai dakedesho...

Am  F  Am

*Verse*
Am               C      Am             F
Mamorubeki hito igaini doushite yasashisa ageruno ?
Am               C           G          Am
Hitowa minna kodomo dakara aio ataereba ee

         FF              GG            Am
Doushite no doubt kimiwa no doubt ? Zutto
         F               G   Asus4     Am
Doushite no doubt bokuo shinjiteruno ?

*Chorus*
      F           Em        G            Am
Kito kiss mo kizu mo darekao yurusu itamimo
       F       C      Am
Zenbu aiyo no spice dayo
      F           Em        G            Am
Sekaijyu sagashitatte aino teigi nante nai
       F         C           Am
Subete wo aino mama uketomete yo

Am  F x3
Am  G  Am

      F           Em        G            Am
Zutto zutto kimio konnanimo aishite irukara
       F             C      Am
Kimini shinjiru tsuyosao agetai
      F           Em        G            Am
Darekao utagai tsudukeru hibini nanio miru ?
       F             C      Am
Hontowa aisarete itaidake desho...
      F           Em        G            Am
Kito kiss mo kizu mo darekao yurusu itamimo
       F      C       Am
Zenbu aiyo no spice dayo
      F            Em        G           Am
Sekaijyu sagashitatte aino teigi nante nai
       F         C            Am
Subete wo aino mama uketomete yo

*Outro Solo*
----------------------------------------|------------------------------------|
-13b15r13-12--12b13r12-10---8h10p8------|-1717171717-1818181818-20-20-20-20--|
-----------------------------------9v---|------------------------------------|
----------------------------------------|------------------------------------|
----------------------------------------|------------------------------------|
----------------------------------------|------------------------------------|

-------|-/17------19--19b20---|--19b20-19b20-19b20r19-17-|-------------------|
-20-20-|----------------------|--------------------------|-------------------|
-------|----------------------|--------------------------|-/10--9-7----------|
-------|----------------------|--------------------------|----------10-------|
-------|----------------------|--------------------------|-------------------|
-------|----------------------|--------------------------|-------------------|

--------------|----------------------------------------------------------------|
--------------|----------------------------------------------------------------|
--------------|----------------------------------------------------------------|
-9b10b9-------|----------------------------------------------------------------|
--------10s-12|----------------------------------------------------------------|
--------------|----------------------------------------------------------------|
Tap to rate this tab
 
# A B C D E F G H I J K L M N O P Q R S T U V W X Y Z