Hank Marvin - Apache tab

-------------------------------------------------------------------------------
			     Apache - Hank MARVIN
-------------------------------------------------------------------------------
Tabbed by:OTTY
Email: otty_man@hotmail.com

Tuning: standard
With Delay
I've watched Him play this so I'm pretty damn sure its right

e|---------------------------5---3---(0)---|
B|-------1--(3b4)---------1----------------|
G|---2-----------------2-------------------|
D|-----------------------------------------| x2
A|-----------------------------------------|
E|-----------------------------------------|

e|-----------------------------------------|
B|-----------------------------------------|
G|------(2)------2-------------------------|
D|----2------2------(4)---2---0---(2sv)----| x2
A|-----------------------------------------|
E|-----------------------------------------|

e|-----------------------------------------|
B|------(3)------3-------------------------|
G|---2-------2------(4)---2---0---(2sv)----|
D|-----------------------------------------| x1
A|-----------------------------------------|
E|-----------------------------------------|

e|-----------------------------------------|
B|-----------------------------------------|
G|------(2)------2-------------------------|
D|----2------2------(4)---2---0---(2sv)----| x1
A|-----------------------------------------|
E|-----------------------------------------|

e|-------------------------------------------------------------|
B|-------------------------------------------------------------|
G|-------------------------------------------------------------|
D|-----3-3-3-3------3-3-3-3------3-3-3-3------3-3-3-3--(2)-----| x1
A|-(3)----------(3)----------(3)----------(3)-------------(0)--|
E|-------------------------------------------------------------|

e|-------------------------------------------------------------|
B|-------------------------------------------------------------|
G|-------------------------------------------------------------|
D|-----3-3-3-3------3-3-3-3------3-3-3-3------3-3-3-3--(2)-----| x1
A|-(3)----------(3)----------(3)----------(3)------------------|
E|-------------------------------------------------------------|


************************************

| sv  slight vibrato
| b   Bend
| ()  let ring


************************************
Tap to rate this tab
 
# A B C D E F G H I J K L M N O P Q R S T U V W X Y Z